Song name
# A B C D E F G H I J K L M N O P Q R S T U V W X Y Z

Ready The Way - Temple Of Doom tab

                      Temple of Doom                                  


                                                                   Ready The Way
Track 1



     Clean, delay @ tempo= quarter note value                    
     E.                                       E.  E  E.  E.  E   
D||--------------------------------------------------0----------|
A||-----------------------------------------------6------6------|
F||-------------------------------------------7--------------7--|
C||--0----------------------------------------------------------|
G||-------------------------------------------------------------|
C||-------------------------------------------------------------|


  E  E  E  E  E.  E.  E     E.  E.  E  E.  E.  E     E  E  E  E  E.  E.  E   
-----8--------6----------|-------------0----------|-----1--------0----------|
--------6---------6------|----------6------6------|--------1---------1------|
-----------7----------7--|------7--------------7--|-----------2----------2--|
-------------------------|--0---------------------|-------------------------|
-------------------------|------------------------|-------------------------|
-------------------------|------------------------|-------------------------|


  E.  E.  E  E.  E.  E     E  E  E  E  E.  E.  E     E.  E.  E  E.  E.  E   
-------------0----------|-----8--------6----------|-------------0----------|
----------6------6------|--------6---------6------|----------6------6------|
------7--------------7--|-----------7----------7--|------7--------------7--|
--0---------------------|-------------------------|--0---------------------|
------------------------|-------------------------|------------------------|
------------------------|-------------------------|------------------------|


                            Distortion, no delay                        
                            PM                   PM  PM PM              
  E  E  E  E  H             E.                   E.  S  S  E  E  E  E   
-----1--------0--------||----------------------------------------------|
--------1--------------||-------------------------------------------6--|
-----------2-----------||*---------------------------------------7-----|
-----------------------||*--0--------------------0---0--0--0-----------|
-----------------------||---0--------------------0---0--0--0-----------|
-----------------------||---0--------------------0---0--0--0-----------|


                          PM  PM  PM PM              
  E.  E.  E  Q    Q       E.  E.  S  S  E  E  E  E   
--0----------8---------|----------------------------|
------6-----------6----|-------------------------6--|
----------7------------|----------------------7-----|
-----------------------|--0---0---0--0--0-----------|
-----------------------|--0---0---0--0--0-----------|
-----------------------|--0---0---0--0--0-----------|


  E.  E.  E  E  E  E  E   4x   Q    E  S S E.  E.  E   
--0----------------0------||---8-------8-8-8---8---8--|
------6---------1-----1---||---6-------6-6-6---6---6--|
----------7--2-----------*||*----------7-7-7---7---7--|
-------------------------*||*-------------------------|
--------------------------||--------------------------|
--------------------------||--------------------------|


  E  E  E  E  E  E  E  E     Q    E  S S E.  E.  E     E  E  E  E  E  E  E  E   
-----6--6--6--6--6--6--6--|--3-------3-3-3---3---3--|-----1--1--1--1--0--0--0--|
-----6--6--6--6--6--6--6--|--1-------1-1-1---1---1--|-----1--1--1--1--1--1--1--|
-----7--7--7--7--7--7--7--|--2-------2-2-2---2---2--|-----2--2--2--2--2--2--2--|
--------------------------|-------------------------|--------------------------|
--------------------------|-------------------------|--------------------------|
--------------------------|-------------------------|--------------------------|


  Q    E  S S E.  E.  E     Q    E  S S E.  E.  E     Q    E  S S E.  E.  E   
--8-------8-8-8---8---8--|--L-------6-6-6---6---6--|--L-------3-3-3---3---3--|
--6-------6-6-6---6---6--|--L-------6-6-6---6---6--|--L-------1-1-1---1---1--|
--7-------7-7-7---7---7--|--L-------7-7-7---7---7--|--L-------2-2-2---2---2--|
-------------------------|-------------------------|-------------------------|
-------------------------|-------------------------|-------------------------|
-------------------------|-------------------------|-------------------------|


                               PM  PM  PM PM   PM PM PM PM  
  E  E  E  E  E  E  E  E       E.  E.  E  Q    S  S  S  S   
-----1--1--1--1--0--0--0---||------------------------------|
-----1--1--1--1--1--1--1---||------------------------------|
-----2--2--2--2--2--2--2--*||------------------------------|
--------------------------*||--0---0---0--0----0--0--0--0--|
---------------------------||--0---0---0--0----0--0--0--0--|
---------------------------||--0---0---0--0----0--0--0--0--|


  PM  PM  PM PM           PM  PM  PM PM   PM PM PM PM    PM  PM  PM            
  E.  E.  E  Q    Q       E.  E.  E  Q    S  S  S  S     E.  E.  E  H          
-----------------------|------------------------------|-----------------------|
-----------------------|------------------------------|-----------------------|
-----------------------|------------------------------|-----------------------|
--0---0---0--0---------|--0---0---0--0----0--0--0--0--|--0---0---0--8\--------|
--0---0---0--0---------|--0---0---0--0----0--0--0--0--|--0---0---0--8\--------|
--0---0---0--0---------|--0---0---0--0----0--0--0--0--|--0---0---0--8\--------|


    PM  PM  PM PM   PM PM PM PM    PM  PM                      
    E.  E.  E  Q    S  S  S  S     E.  E.   E  E   E   E   E   
|-------------------------------|-----------------------------|
|-------------------------------|-----------------------------|
|*------------------------------|-----------------------------|
|*--0---0---0--0----0--0--0--0--|--0---0---10--9------12--14--|
|---0---0---0--0----0--0--0--0--|--0---0----------10----------|
|---0---0---0--0----0--0--0--0--|--0---0----------------------|


  PM  PM  PM PM   PM PM PM PM    PM  PM                      
  E.  E.  E  Q    S  S  S  S     E.  E.   E  E   E  E  E   4x
------------------------------|----------------------------||
------------------------------|----------------------------||
------------------------------|---------------------------*||
--0---0---0--0----0--0--0--0--|--0---0---10--9------------*||
--0---0---0--0----0--0--0--0--|--0---0----------10--5--7---||
--0---0---0--0----0--0--0--0--|--0---0---------------------||


   E.  E.  Q    E  E  E     E  E  E  E  E  E  E  E     E.  E.  Q    E  E  E   
-------------------0--0--|--0--0--0--0--0--0--0--0--|------------------0--0--|
-------------------6--6--|--6--6--6--6--6--6--6--6--|------------------8--8--|
*------------------------|--------------------------|------------------------|
*--0---0---0-------------|--------------------------|--0---0---0-------------|
---0---0---0-------------|--------------------------|--0---0---0-------------|
---0---0---0-------------|--------------------------|--0---0---0-------------|


  E  E  E  E  E  E  E  E     
--0--0--0--0--0--0--0--0---||
--8--8--8--8--8--8--8--8---||
--------------------------*||
--------------------------*||
---------------------------||
---------------------------||


  Clean, delay @ tempo= quarter note value                    
  E.                                       E.  E  E.  E.  E   
--------------------------------------------------0----------|
-----------------------------------------------6------6------|
-------------------------------------------7--------------7--|
--0----------------------------------------------------------|
-------------------------------------------------------------|
-------------------------------------------------------------|


  E  E  E  E  E.  E.  E     E.  E.  E  E.  E.  E     E  E  E  E  H         
-----8--------6----------|-------------0----------|-----1--------0--------|
--------6---------6------|----------6------6------|--------1--------------|
-----------7----------7--|------7--------------7--|-----------2-----------|
-------------------------|--0---------------------|-----------------------|
-------------------------|------------------------|-----------------------|
-------------------------|------------------------|-----------------------|


    Distortion, no delay                                                
    PM                   PM  PM PM                                      
    E.                   E.  S  S  E  E  E  E     E.  E.  E  Q    Q     
|----------------------------------------------|--0----------8---------|
|-------------------------------------------6--|------6-----------6----|
|*---------------------------------------7-----|----------7------------|
|*--0--------------------0---0--0--0-----------|-----------------------|
|---0--------------------0---0--0--0-----------|-----------------------|
|---0--------------------0---0--0--0-----------|-----------------------|


  PM  PM  PM PM                                          
  E.  E.  S  S  E  E  E  E     E.  E.  E  E  E  E  E   4x
----------------------------|--0----------------0------||
-------------------------6--|------6---------1-----1---||
----------------------7-----|----------7--2-----------*||
--0---0---0--0--0-----------|-------------------------*||
--0---0---0--0--0-----------|--------------------------||
--0---0---0--0--0-----------|--------------------------||


  E.  E.  Q    Q    E     E  E  E  E  E.  E.  E     E.  E.  Q    Q    E   
-----------------------|-----0--------8----------|-----------------------|
-----------------------|--------6---------6------|-----------------------|
-----------------------|-----------7----------7--|-----------------------|
--0---0---0------------|-------------------------|--0---0---0------------|
--0---0---0------------|-------------------------|--0---0---0------------|
--0---0---0------------|-------------------------|--0---0---0------------|


                            clean, let it ring into next intro   
  E  E  E  E  E.  E.  E     W                                    
-----3--------1----------|--0----------------------------------||
--------1---------1------|--6----------------------------------||
-----------2----------2--|--7----------------------------------||
-------------------------|-------------------------------------||
-------------------------|-------------------------------------||
-------------------------|-------------------------------------||




Duration Legend
---------------
W - whole
H - half
Q - quarter
E - 8th
S - 16th
T - 32nd
X - 64th
. - note dotted
|-n-|  - n-tuplets


Tablature Legend
----------------
L - tied note
x - dead note
g - grace note
(n) - ghost note
> - accentuded note
NH - natural harmonic
AH - artificial harmonic
TH - tapped harmonic
SH - semi harmonic
PH - pitch harmonic
h - hammer on
p - pull off
b - bend
br - bendRelease
pb - preBend
pbr - preBendRelease
brb - bendReleaseBend
\n/ - tremolo bar dip
\n - tremolo bar dive
-/n - tremolo bar Release up
/n\ - tremolo bar inverted dip
/n - tremolo bar return
-\n - tremolo bar Release down
S - shift slide
s - legato slide
/ -  slide into from below or out of upwards
\ -  slide into from above or out of downwards
~ - vibrato
W - wide vibrato
tr - trill
TP - tremolo picking
T - tapping
S - slap
P - pop
< - fade in
^ - brush up
v - brush down
Tap to rate this tab
# A B C D E F G H I J K L M N O P Q R S T U V W X Y Z