Song name
# A B C D E F G H I J K L M N O P Q R S T U V W X Y Z

Readymade - Stromgitarre tab

Band / Artist : Readymade
Song title : Stromgitarre
Tuning: Standard

Intro:
e -------------------------------------------------------------------------|
B -------------------------------------------------------------------------|
G -------------------------------------------------------------------------|
D ------7-----7----------7---7-9-9-7------6-----6---------6---6-7-7-6------|
A --0-0---0-0----0-0-0-0---0----------0-0---0-0---0-0-0-0---0--------------|
E -------------------------------------------------------------------------|

e --------------------------------------------------------------------------|
B --------------------------------------------------------------------------|
G --------------------------------------------------------------------------|
D ------4-----4---------4---4-6-6-4------2-----2---2---2-----2--------------|
A --0-0---0-0---0-0-0-0---0----------0-0---0-0---0---0---0-0----------------|
E --------------------------------------------------------------------------|

i know its not 100% right. but you can figure it out yourself easily
Tap to rate this tab
# A B C D E F G H I J K L M N O P Q R S T U V W X Y Z