Song name
# A B C D E F G H I J K L M N O P Q R S T U V W X Y Z

Reagan Youth - Degenerated tab

Degenerated Solo
tabbed out by: ross borenstein
email: changeofideas@aol.com

i took the easiest parts from all the tabs i found and put them together, it sounds 
the same if you play it this way as opposed to the hard way.

e---------------------------------------------|
b 12-13-12-13-12-13-12-13-12-13---------------|
g --------------------------------------------|
d --------------------------------------------|
a --------------------------------------------|
e --------------------------------------------|

e ------------------------------------------------|
b -----------12--13--12---------------------------|
g -12---14---------------12--14---12--14----------|
d ------------------------------------------------|
a ------------------------------------------------|
e ------------------------------------------------|

e ------------------------------------12--15--12---15---12-----------|
b ----13---16---13---16---13--12--12--12---12---12-------------------|
g -13---13---13---13---13--------------------------------------------|
d -------------------------------------------------------------------|
a -------------------------------------------------------------------|
e -------------------------------------------------------------------|

e ----------------------------------|
b -----11---14---11---14------------|
g --11---11---11---11---11----------|
d ----------------------------------|
a ----------------------------------|
e ----------------------------------|


e ----------------------------------------------------------|
b -------------------------------------14---14--15--12--13--|
g ----------------------------------------------------------|
d --5--7--5--7--5--7--5--7--5--7----------------------------|
a ----------------------------------------------------------|
e ----------------------------------------------------------|

e --13--12--13--12--13--12--13--12--13--12--13--|
b --12--12--12--12--12--12--12--12--12--12--12--|
g --10--10--10--10--10--10--10--10--10--10--10--|
d ----------------------------------------------|
a ----------------------------------------------|
e ----------------------------------------------|

e --14-15-14-15-14-15-14-------------------------|
b -----------------------------------------------|
g -----------------------------------16----------|
d -------------------------------14--------------|
a -----------------------------------------------|
e -----------------------------------------------|pick slide
Tap to rate this tab
 
# A B C D E F G H I J K L M N O P Q R S T U V W X Y Z