Song name
# A B C D E F G H I J K L M N O P Q R S T U V W X Y Z

Reagan Youth - Go Nowhere tab

Reagan Youth - Go Nowhere
e-mail: iamtheowl133@aol.com

 Intro/Verse
 e-----------------------------------------|
 B-----------------------------------------|
 G-----7-7-7-7--------------------9-9--9-9-|
 D-----7-7-7-7--7-7-7-7--9-9-9-9--9-9--9-9-|
 A-----5-5-5-5--7-7-7-7--9-9-9-9--7-7--7-7-|
 E--------------5-5-5-5--7-7-7-7-----------|
 
 Chorus   x2        ~ = Let Ring
 e-----------------------------------------------|
 B-----------------------------------------------|
 G--9-9-9-9-9-9-9-9-9-9-9-9-----12--~------12--~-|
 D--9-9-9-9-9-9-9-9-9-9-9-9--12-12-12---12-10-12-| 
 A--7-7-7-7-7-7-7-7-7-7-7-7--12-10-12---12-10-12-|
 E---------------------------10----10---10----10-|

 Solo     x3          then -->   x1         ^ = 1/2 bend and realease
 e----------------------------|----------------------------------|
 B----------------------------|----------------------------------|
 D--12-12--12-12----------12--|--12-12--12-12--^--------------12-|
 G---------------14-14-14-----|----------------13-13-14-14-14----|
 A----------------------------|----------------------------------|
 E----------------------------|----------------------------------|

 Chorus   x2        ~ = Let Ring
 e-----------------------------------------------|
 B-----------------------------------------------|
 G--9-9-9-9-9-9-9-9-9-9-9-9-----12--~------12--~-|
 D--9-9-9-9-9-9-9-9-9-9-9-9--12-12-12---12-10-12-| 
 A--7-7-7-7-7-7-7-7-7-7-7-7--12-10-12---12-10-12-|
 E---------------------------10----10---10----10-|

 Verse/Outro   x4
 e-----------------------------------------|
 B-----------------------------------------|
 G-----7-7-7-7--------------------9-9--9-9-|
 D-----7-7-7-7--7-7-7-7--9-9-9-9--9-9--9-9-|
 A-----5-5-5-5--7-7-7-7--9-9-9-9--7-7--7-7-|
 E--------------5-5-5-5--7-7-7-7-----------|
Tap to rate this tab
# A B C D E F G H I J K L M N O P Q R S T U V W X Y Z