Song name
# A B C D E F G H I J K L M N O P Q R S T U V W X Y Z

Reagan Youth - Are You Happy tab

Artist: Reagan Youth
Song: (Are You) Happy?
Album: Reagan Youth, Vol. 1
Tabbed by PersonMan92

Tuning: Standard (Low to High: E,A,D,G,B,e)


Verse

Guitars I/II
|----------------------------------------------------------------|
|----------------------------------------------------------------|
|----------------------------------------------------------------|
|-5--5--5--5--5--5--5--5--7--7--7--7--7--7--7--7-----------------|
|-5--5--5--5--5--5--5--5--7--7--7--7--7--7--7--7-----------------|
|-3--3--3--3--3--3--3--3--5--5--5--5--5--5--5--5-----------------|

|----------------------------------------------------------------|
|----------------------------------------------------------------|
|----------------------------------------------------------------|
|-8--8--8--8--8--8--8--8-10-10-10--7---7--7--7-------------------|
|-8--8--8--8--8--8--8--8-10-10-10--7---7--7--7-------------------|
|-6--6--6--6--6--6--6--6--8--8--8--5---5--5--5-------------------|


Chorus

Guitar I
|----------------------------------------------------------------|
|----------------------------------------------------------------|
|----------------------------------------------------------------|
|-5--5--5--5--5--5--5--5--7--7--7--7--7--7--7--7-----------------|
|-5--5--5--5--5--5--5--5--7--7--7--7--7--7--7--7-----------------|
|-3--3--3--3--3--3--3--3--5--5--5--5--5--5--5--5-----------------|

|----------------------------------------------------------------|
|----------------------------------------------------------------|
|----------------------------------------------------------------|
|-8--8--8--8--8--8--8--8-10-10-10--7---7--7--7-------------------|
|-8--8--8--8--8--8--8--8-10-10-10--7---7--7--7-------------------|
|-6--6--6--6--6--6--6--6--8--8--8--5---5--5--5-------------------|

Guitar II
|-------5--------5--------5--------5-----------------------------|
|----------------------------------------------------------------|
|----------------------------------------------------------------|
|----------------------------------------------------------------|
|----------------------------------------------------------------|
|----------------------------------------------------------------|


Bridge

Guitars I/II
|----------------------------------------------------------------|
|----------------------------------------------------------------|
|----------------------------------------------------------------|
|-7--7--7--7--7--7--7--7--9--9--9--9--9--9--9--9-----------------|
|-7--7--7--7--7--7--7--7--9--9--9--9--9--9--9--9-----------------|
|-5--5--5--5--5--5--5--5--7--7--7--7--7--7--7--7-----------------|

|----------------------------------------------------------------|
|----------------------------------------------------------------|
|------------------------10-10-10-10--10-10-10-------------------|
|10-10-10-10-10-10-10-10-10-10-10-10--10-10-10-------------------|
|10-10-10-10-10-10-10-10--8--8--8--8---8--8--8-------------------|
|-8--8--8--8--8--8--8--8-----------------------------------------|
Tap to rate this tab
# A B C D E F G H I J K L M N O P Q R S T U V W X Y Z