Song name
# A B C D E F G H I J K L M N O P Q R S T U V W X Y Z

Real Estate - Snow Days tab

Artist: Real Estate
Song: Snow Days
Album: Real Estate (2009)

Tuning: D A D F# A D

Listen to the song to get a feel for it, you have to really arpeggiate those sweeps in 
between the melody to get the sound right

 D|------------------------------------------------------------------------|
 A|------------------------0-------------------------------------0---------|
F#|-----0---0---0--------0-----0---0---------------------------0-----0---0-|
 D|---0----------------0---------0----0h2-2/-4-\2p0-----0----0---------0---|
 A|-----------0---2--2-------2----------------------2-0----0-------0-------|
 D|-0-----4----------------------------------------------------------------|


 D|-------------------------------------------------------------|
 A|--------------------0-----------------------------0----------|
F#|------------------0-----0---0-------------------0-----0---0--|
 D|-4--4-\2-0------0---------0--------0----------0---------0----|
 A|-----------2--2-------2--------0h2---------------------------|
 D|-------------------------------------4-2-0--0-------0--------|
Tap to rate this tab
 
# A B C D E F G H I J K L M N O P Q R S T U V W X Y Z