Song name
# A B C D E F G H I J K L M N O P Q R S T U V W X Y Z

Real Estate - Its Real tab

-------------------------------------------------------------------------------
			     IT'S REAL - Real Estate
-------------------------------------------------------------------------------

This part is played pretty much throughout the song
e|----7-5---------------------------------5----------------------------------|
B|-----------7-5-----------7-5-----5-7---------------------------------------|
G|------------------7-4------------------------------------------------------|
D|---------------------------------------------------------------------------|
A|---------------------------------------------------------------------------|
E|---------------------------------------------------------------------------|

Bridge
e|-----------5-7-5-------5---------------------------------------------------|
B|-----5-7----------7--------------------------------------------------------|
G|---------------------------------------------------------------------------|
D|---------------------------------------------------------------------------|
A|---------------------------------------------------------------------------|
E|---------------------------------------------------------------------------|
Tap to rate this tab
 
# A B C D E F G H I J K L M N O P Q R S T U V W X Y Z