Song name
# A B C D E F G H I J K L M N O P Q R S T U V W X Y Z

Real Estate - All The Same tab

All the Same ~ Real Estate
from the album "Days"

Tuning: Standard

Intro/Verse Chords: 
E|-0-0-0-0-0-0-0-0-0-0-0-0-0-0-0-0-|
B|-5-5-5-5-5-5-5-5-7-7-7-7-5-5-5-5-|
G|-6-6-6-6-6-6-6-6-6-6-6-6-6-6-6-6-|
D|-7-7-7-7-7-7-7-7-7-7-7-7-7-7-7-7-|
A|-0-0-0-0-0-0-0-0-0-0-0-0-0-0-0-0-|
e|-x-x-x-x-x-x-x-x-x-x-x-x-x-x-x-x-|
   There goes...   Oh, what a shame
   It's okay       That's all the...

Verse Riff:   
E|-7-5-----9-7p5-----7-5-----9-7p5-----------------------------------|
B|-----7---------7-------7---------7---7-5-----7-5-----7-5-----7-5---|
G|-----------------------------------------6-------6-------6-------6-|
D|-------------------------------------------------------------------|
A|-------------------------------------------------------------------|
e|-------------------------------------------------------------------|

Chorus:
   A                               E
E|-0-0-0-0-0-0-0-0-0-0-0-0-0-0-0-0-0-0-0-0-0-0-0-0-0-0-0-0-0-0-0-0-|
B|-2-2-2-2-2-2-2-2-2-2-2-2-2-2-2-2-0-0-0-0-0-0-0-0-0-0-0-0-0-0-0-0-|
G|-2-2-2-2-2-2-2-2-2-2-2-2-2-2-2-2-1-1-1-1-1-1-1-1-1-1-1-1-1-1-1-1-|
D|-2-2-2-2-2-2-2-2-2-2-2-2-2-2-2-2-2-2-2-2-2-2-2-2-2-2-2-2-2-2-2-2-|
A|-0-0-0-0-0-0-0-0-0-0-0-0-0-0-0-0-2-2-2-2-2-2-2-2-2-2-2-2-2-2-2-2-|
e|-0-0-0-0-0-0-0-0-0-0-0-0-0-0-0-0-0-0-0-0-0-0-0-0-0-0-0-0-0-0-0-0-|
   Oh, and when... From the sea... It's true...    You brought a...  
   Oh, I know...   But you stay... Uh huh...       We got a memory 

Outro Riff 1:
E|---------5---------5---------5---------5-|
B|-----5h7-------5h7-------5h7-------5h7---|
G|-4-6-------4-6-------4-6-------4-6-------|
D|-----------------------------------------|
A|-----------------------------------------|
e|-----------------------------------------|

Outro Riff 2:
E|---------5---------5---------------------|
B|-----5h7-------5h7-------5h7-5-----5h7-5-|
G|-4-6-------4-6-------4-6-------4-6-------|
D|-----------------------------------------|
A|-----------------------------------------|
e|-----------------------------------------|

E|-------0---0-------0---0-------0---0-------0---0-|
B|-----5---5-------5---5-------5---5-------5---5---|
G|-4-6---------4-6---------4-6---------4-6---------|
D|-------------------------------------------------|
A|-------------------------------------------------|
e|-------------------------------------------------|

Structure:
Intro/Verse  x10
Chorus       x2
Intro/Verse  x8
Chorus       x2
Intro/Verse  x8
Chorus       x4
Outro Riff 1 x1
Outro Riff 2 x(infinity)

Note: The strum pattern for this song is
upstroke/downstroke/upstroke/downstroke... 
etc., with an emphasis on the upstrokes.
Tap to rate this tab
# A B C D E F G H I J K L M N O P Q R S T U V W X Y Z