Song name
# A B C D E F G H I J K L M N O P Q R S T U V W X Y Z

Real Estate - Younger Than Yesterday tab

I play this in A major usually (sounds a little fuller when you're 
playing it by yourself), but Real Estate plays it in D, so that's what I tabbed it for. 

Chords

D      xx0232
Fmaj7  xx3210
C      x32010
D7     xx0212
Am     x02210
E      022100
F      133211
G      320033

Verse/Chorus (Guitar 1 plays the chords, Guitar 2 the melody during the chorus)


Guitar 1
D   Fmaj7       C     D7
\ \ \ \ |\ \ \ \| \ \ \ \|


Guitar 2
e-----------------------------------------------------|
B-----------------------------------------------------|
G-----------------------------------------------------|
D-----------------------------------------------------|
A---5--8----8-10---5h7-5------5--8----8-10---5h7-5----|
E----------------8-------5-----------------8----------|


It's also pretty easy to combine the chords and the melody and play them on one guitar, like this:

e-----2----0--------0---------2---|
B-----3----1--------1---------1---|
G-----2----2------0-0---------2---|
D---0----3------3-----0h2-0-------|
A-------------------3-------0-----|
E---------------------------------|


Bridge chords

Am  E   F   
\ \ \ \ |\ \ \ \ \ \ \ \|

Outro chords

G  F             G   F 
\ \ \ \| \ \ \ \|\ \ \ \| \ \ \ \|

Lyrics: 

No more light-green leaves
This summer held no words 
I will not have gone home this year
But I'm still not a bird

Ohh ohh

If it takes all summer long 
Just to write one simple song
There's too much to focus on 
Clearly there is something wrong

Ohh ohh
Tap to rate this tab
# A B C D E F G H I J K L M N O P Q R S T U V W X Y Z