Song name
# A B C D E F G H I J K L M N O P Q R S T U V W X Y Z

Real Estate - Green Aisles tab

-------------------------------------------------------------------------------
                             Green Aisles - Real Estate
-------------------------------------------------------------------------------
Tabbed by: Eli W.
E-mail:

Second tab ever tabbed out, second Real Estate song tabbed as well. Spacing doesn't mach
beat to the song so listen to it for the feel and since I'm new to tabbing I'm having
some trouble with chords lining up so if you see something that looks like a chord it 
probably is. Run your guitar(s) clean for this one with some delay phase here and there.
Please put constructive criticism/fixes below. Enjoy!

Tuning: EADGBE

INTRO
Guitar 1
e|---------------------------------------------------------------------------|
B|-----1---1----1---1--------------------------------------------------------|
G|-------2--------2----------------------------------------------------------|     X24
D|--3---------0--------------------------------------------------------------|
A|---------------------------------------------------------------------------|
E|---------------------------------------------------------------------------|

Guitar 2 plays this after Guitar 1 plays the line 2 times....
e|------0-----1-0------0-------------------------------------------------------------|
B|---1---1--1-------1----------------------------------------------------------------|
G|--2-2---2-------2--2-------------------------------------------------------|   X12-|
D|-----------------------------------------------------------------------------------|
A|-----------------------------------------------------------------------------------|
E|-----------------------------------------------------------------------------------|

Guitar 3 comes in and plays this after the 4th time...
e|------------3-----------------3--------------------------------------------|
B|-----1--3s5---3-1------1--3s5--3-1-----------------------------------------|
G|---2--2--------------2-----------------------------------------------------|  X4
D|---------------------------------------------------------------------------|
A|---------------------------------------------------------------------------|
E|---------------------------------------------------------------------------|

Guitar 3
e|-----5---------8------0---0---0--0-----------------------------------------|
B|---5--5---8s10--8s5--5h6-5---5--3------------------------------------------|
G|----------------------------7-----5----------------------------------------|  X4
D|---------------------------------------------------------------------------|
A|---------------------------------------------------------------------------|
E|---------------------------------------------------------------------------|

VERSES
Guitar 1

Guitar 1
e|---------------------------------------------------------------------------|
B|-----1---1----1---1--------------------------------------------------------|
G|-------2--------2----------------------------------------------------------|     X3
D|--3---------0--------------------------------------------------------------|
A|---------------------------------------------------------------------------|
E|---------------------------------------------------------------------------|

Guitar 1 (cont.)
e|---------------------------------------------------------------------------|
B|--3-3-3-3-3-3-3-3----------------------------------------------------------|
G|--4-4-4-4-4-4-4-4----------------------------------------------------------|
D|--5-5-5-5-5-5-5-5----------------------------------------------------------|
A|---------------------------------------------------------------------------|
E|---------------------------------------------------------------------------|

Guitar 2
e|------0-----1-0------0-----------0--------------------------------------------|
B|---1---1--1-------1----------1-----1--1---1s3-3-3-3-3-3-3-3-------------------|
G|--2-2---2-------2--2-------2--2-----2-----2s4-4-4-4-4-4-4-4-------------------|
D|------------------------------------------------------------------------------|
A|------------------------------------------------------------------------------|
E|------------------------------------------------------------------------------|

CHORUS

Guitar 1
e|---0-0-0-0-0-0-0-0--0-0-0-0-0-0-0-0----------------------------------------|
B|---3-3-3-3-3-3-3-3--1-1-1-1-1-1-1-1----------------------------------------|
G|---4-4-4-4-4-4-4-4--2-2-2-2-2-2-2-2----------------------------------------|   X3
D|---5-5-5-5-5-5-5-5--3-3-3-3-3-3-3-3----------------------------------------|
A|---------------------------------------------------------------------------|
E|---------------------------------------------------------------------------|

Guitar 2
e|---------------------------------------------------------------------------|
B|----------------0----------------------------------------------------------|
G|---s7--5--4--2---0h2-0--0--------------------------------------------------|  X3
D|-----------------------2---------------------------------------------------|
A|---------------------------------------------------------------------------|
E|---------------------------------------------------------------------------|

Guitar 1
e|-------------0-0-0-0--0-0-0-0-0-0-0-0--------------------------------------|
B|---1-1-1-1---3-3-3-3--1-1-1-1-1-1-1-1--------------------------------------|
G|---0-0-0-0---4-4-4-4--2-2-2-2-2-2-2-2--------------------------------------|
D|---2-2-2-2---5-5-5-5--3-3-3-3-3-3-3-3--------------------------------------|
A|---3-3-3-3-----------------------------------------------------------------|
E|---------------------------------------------------------------------------|

Guitar 2
e|-----------------------0-0-0-0-0-0-0-0-------------------------------------|
B|-----------------------1-1-1-1-1-1-1-1-------------------------------------|
G|---2s9-----------------2-2-2-2-2-2-2-2-------------------------------------|
D|---------------------------------------------------------------------------|
A|---------------------------------------------------------------------------|
E|---------------------------------------------------------------------------|

SOLO

Guitar 1
e|---------------------------------------------------------------------------|
B|-----1---1----1---1--------------------------------------------------------|
G|-------2--------2----------------------------------------------------------|     X24
D|--3---------0--------------------------------------------------------------|
A|---------------------------------------------------------------------------|
E|---------------------------------------------------------------------------|

Guitar 2
e|-----------------------------------------------------------------------------|
B|-----------------------------------------------------------------------------|
G|---------7----------------7---------------7---------------7------------------|
D|----5-7s9--7-5------5-7s9--7-5-9-5--5-7s9--7-5------5-7s9--7-5-9-5-----------|
A|---------------5-7------------------------------5-7--------------------------|
E|-----------------------------------------------------------------------------|

Guitar 2 (X)
e|-----------------0-----------------------------------------------------------|
B|----8-5--------5---------8-5-------------------------------------------------|
G|---------7-5-7----------------7-5--------------------------------------------|
D|--------------------s9-7-----------s9-7-5------------------------------------|
A|-------------------------------------------7---------------------------------|
E|-----------------------------------------------------------------------------|

Guitar 2
e|-----------------------------------------------------------------------------|
B|----------------8---10-8--8--------------------------------------------------|
G|----5---5-7-7s9---------9--9---7s5-------------------------------------------|
D|------7----------------------------7-----------------------------------------|
A|-----------------------------------------------------------------------------|
E|-----------------------------------------------------------------------------|

e|--------------------------------------0----0-----1-0---------------------------|
B|---8--------------------------------1----3-----1-----1-------------------------|
G|----9-7-9-----7-9--12s14-12-9----2----------2---------2------------------------|
D|-------------------------------------------------------------------------------|
A|-------------------------------------------------------------------------------|
E|-------------------------------------------------------------------------------|

Guitar 3 plays this in the background of the solo until it reaches the section marked
with an (X) of Guitar 2
e|------0-----1-0------0--------------------------------------------------------|
B|---1---1--1-------1-----------------------------------------------------------|
G|--2-2---2-------2--2----------------------------------------------------------|
D|------------------------------------------------------------------------------|
A|------------------------------------------------------------------------------|
E|------------------------------------------------------------------------------|

Guitar 3 then plays this variation of the final part of the solo passed the marked part.
This one was a little hard to discern from the rest of the mix so I'm not entirely sure
if its correct...
e|-------0------------0--1-0--------------------------------------------------------|
B|----1----1---1----3--------1------------------------------------------------------|
G|--2--2-----2----2---------------------------------------------------------|   X12-|
D|----------------------------------------------------------------------------------|
A|----------------------------------------------------------------------------------|
E|----------------------------------------------------------------------------------|

Theres also a slide guitar in the background but its hard to distinguish in the mix. 
Thanks for Looking!



Song Order
Intro
Verse
Verse
Verse
Verse
Chorus
Verse
Verse
Verse
Verse
Verse
Chorus
Solo
Verse
Verse
Verse
Chorus
Chorus


************************************

| /   slide up
| \   slide down
| h   hammer-on
| p   pull-off
| ~   vibrato
| +   harmonic
| x   Mute note
| b   Bend
| pb  Pre-bend
| br  Bend release
| pbr Pre-bend release
| brb Bend release bend

************************************
Tap to rate this tab
# A B C D E F G H I J K L M N O P Q R S T U V W X Y Z