Song name
# A B C D E F G H I J K L M N O P Q R S T U V W X Y Z

Real Estate - Reservoir 3 tab

(/) Slide Up  (\) Slide Down  (h) Hammer On  (p) Pull Off  (b) Bend (r) Release (v) Vibrato


E|-------3--5----5h7--5--3-----|
B|--5--------------------------|
G|-----------------------------|
D|-----------------------------|
A|-----------------------------|
E|-----------------------------|



E|-------3--5----5h7--5--3----8--8--10--5--5----5--3--5-------|
B|--5---------------------------------------------------------|
G|------------------------------------------------------------|
D|------------------------------------------------------------|
A|------------------------------------------------------------|
E|------------------------------------------------------------|



E|--8--8--10--5--5----5--3--5----8--8--10--10h12--10--8--10h12--10--8--5--------|
B|------------------------------------------------------------------------------|
G|------------------------------------------------------------------------------|
D|------------------------------------------------------------------------------|
A|------------------------------------------------------------------------------|
E|------------------------------------------------------------------------------|
                                                        http://www.guitartabcreator.com
Tap to rate this tab
# A B C D E F G H I J K L M N O P Q R S T U V W X Y Z