Song name
# A B C D E F G H I J K L M N O P Q R S T U V W X Y Z

Real Estate - Reservoir 3 tab

(/) Slide Up  (\) Slide Down  (h) Hammer On  (p) Pull Off  (b) Bend (r) Release (v) Vibrato



E|------------------------------|
B|-------8--10----10\12--10--8--|
G|--9---------------------------|      (x4 for the intro/ x2 everywhere else)
D|------------------------------|
A|------------------------------|
E|------------------------------|



E|--8--8----10-----------------------|
B|--------------10--10----10--8--10--|
G|-----------------------------------|     (x2)
D|-----------------------------------|
A|-----------------------------------|
E|-----------------------------------|



E|--8--8----10--10\12--10--8--10\12--10--8------|
B|------------------------------------------10--|
G|----------------------------------------------|
D|----------------------------------------------|
A|----------------------------------------------|
E|----------------------------------------------|



Strumming from 1:05 - 1:12 is:
Amin - Cmaj
Tap to rate this tab
# A B C D E F G H I J K L M N O P Q R S T U V W X Y Z