Song name
# A B C D E F G H I J K L M N O P Q R S T U V W X Y Z

Real Estate - Talking Backwards tab

Only worked this bit out so far - will post a full version if I work that out.
New single from the brilliant band Real Estate.


-------------------------------------------------------------------------------
                             Real Estate - 'Talking Backwards'
-------------------------------------------------------------------------------
Tabbed by: Declan

Tuning: EADGBe

CAPO 5

(Listen to the song for exact rhythm)

  Fmaj7   Am7     ?      ?     C

e|-----0-----0------0-----0----0--------|
B|-----1-----1------1-------1--1--------|
G|---2-----0------0-----0------0--------|
D|-3-----2------0-----3--------2--------|
A|-----------------------------3--------|
E|--------------------------------------|

Fingerpick the first four chords, then strum on the C chord, occasionally taking your 
finger off the B string to make it open
Tap to rate this tab
# A B C D E F G H I J K L M N O P Q R S T U V W X Y Z