Song name
# A B C D E F G H I J K L M N O P Q R S T U V W X Y Z

Real Estate - How Might I Live tab

Real Estate 
How Might I Live
Atlas

A nice little tune off their new album.  Words and music by Alex Bleeker.

/ = hammer on 
\ = pull off
Here's the intro riff (and the riff played throughout the song):

e|------------------------------------|-------------------------|
B|------------------------------------|-------------------------|
G|------------------------------------|-------------------------|
D|-9--7--5--2---0/2/5---2\0-----2\0---|-9--7--5--2---0/2---5--9-|
A|------------------------------------|-------------------------|
E|---------------------------3------3-|-------------------------|

e|----------------------------|--0--|-------------------------|
B|----------------------------|--0--|-------------------------|
G|----------------------------|--0--|-------------------------|
D|-9--7--5--2---0/2/5---2\0---|--2--|-9--7---5--7-5--7--5-7-9-|
A|----------------------------|--3--|-------------------------|
E|--------------------------3-|--0--|-------------------------|

(G and C are strummed throughout the intro and verse)

G           C              G    G           C               G
How might I live to betray you, how might I live to see the day?

G           C                  G             Cmaj7
How might I live to say you're not the one I love

C           D               G
How might I live to see the day?

That's basically it.  C and G are the chords strummed during the bridge.
Tap to rate this tab
# A B C D E F G H I J K L M N O P Q R S T U V W X Y Z