Song name
# A B C D E F G H I J K L M N O P Q R S T U V W X Y Z

Real Estate - Had To Hear tab

Guitar I - Intro/verse

|-------2-2-------2-2--------2-2-----2-2-----|
|-------3-3-------3-3--------3-3-----3-3-----|
|--------------------------------------------|
|--2-----------------------0-----------------|
|-------------2------------------------------|
|--------------------------------------------|

Guitar II - intro


|-----5----5-----------------------------------------------|
|------------------8----8------7-5-------------------------|
|-------------------------------------7------------4-7-----|
|-----------------------------------------------7----------|
|----------------------------------------------------------|
|----------------------------------------------------------|



|-----5----5-----------------------------------------------|
|------------------8----8------7--------7------------------|
|----------------------------------------------------------|
|----------------------------------------------------------|
|----------------------------------------------------------|
|----------------------------------------------------------|


|-----5----5---------------------------------------------------------------------------------------|
|------------------8----8------7-5-------------------------5----5-7--------------------------------|
|-------------------------------------7------------4-7----------------7--------4-7----4-7----------|
|-----------------------------------------------7----------------------------7---------------------|
|--------------------------------------------------------------------------------------------------|
|--------------------------------------------------------------------------------------------------|
First tab and trying with an iphone....
Really hoping someone can help me out with this one. Great song
Tap to rate this tab
# A B C D E F G H I J K L M N O P Q R S T U V W X Y Z