Real Estate - Talking Backwards tab

:D



E|--6--------------------------|
B|-----8-----6--5--6-----------|
G|--------5-----------7--3--2--|
D|-----------------------------|
A|-----------------------------|
E|-----------------------------|

E|--6--------------------------|
B|-----8-----6--5--6-----5--6--|
G|--------5-----------5--------|
D|-----------------------------|
A|-----------------------------|
E|-----------------------------|
Tap to rate this tab
 
# A B C D E F G H I J K L M N O P Q R S T U V W X Y Z