Song name
# A B C D E F G H I J K L M N O P Q R S T U V W X Y Z

Real Friends - Floorboards tab

-------------------------------------------------------------------------------
                             FLOORBOARDS (ACOUSTIC) - Real Friends
-------------------------------------------------------------------------------
Tabbed by: Jared Roork
E-mail: jaredroork@gmail.com

Tuning: D# G# C# F# A# D#
-------------------------------------------------------------------------------
You Can Play These Tabs In Standard Of Half-Step Down,
But They Play It Half-Step Down
-------------------------------------------------------------------------------

E:
        e|--0--|
        B|--0--|
        G|--1--|
        D|--2--|
        A|--2--|
        E|-----|

E*:                                     E**:
        e|--0--|                                e|--0--|
        B|--0--|                                B|--0--|
        G|--9--|                                G|--9--|
        D|--9--|                                D|--9--|
        A|--7--|                                A|--6--|
        E|-----|                                E|-----|

-------------------------------------------------------------------------------

Intro:

e|---0-0-0-----------0--0---|
B|---0-0-0-----------0--0---|
G|---2-2-2-----------6--6---|  x2
D|---2-2-2-----------6--6---|
A|---0-0-0-----------4--4---|
E|--------------------------|

Verse:
(You Said I Didn't Cry…)

e|---0-0--------------0---------0-0-------------0------|
B|---0-0--------------0---------0-0-------------0------|
G|---1-1--------------2---------1-1-------------4------|
D|---2-2-----4-4-4----2---------2-2-----4-4-4---4------|
A|---2-2-----4-4-4----0---------2-2-----4-4-4---2------|
E|---0-0-----2-2-2--------------0-0-----2-2-2----------|
                                                                                         
               x2
e|---0-0-----0-0-0----0---------0-0-----0-0-0----0-----|
B|---0-0-----0-0-0----0---------0-0-----0-0-0----0-----|
G|---6-6-----2-2-2----1---------6-6-----2-2-2----1-----|
D|---6-6-----2-2-2----2---------6-6-----2-2-2----2-----|
A|---4-4-----0-0-0----2---------4-4-----0-0-0----2-----|
E|-----------------------------------------------------|

 E    F#m     A
Don't Let Me Fall Off The Edge And Break Down
C#m   A     E
Try Not To Forget Everything I Said



Pre-Chorus:

e|---0-0-0-0---0-0-0-0------0-0----|
B|---0-0-0-0---0-0-0-0------0-0----|
G|---2-2-2-2---2-2-2-2------4-4----|
D|---2-2-2-2---2-2-2-2------4-4----|
A|---0-0-0-0---0-0-0-0------2-2----|
E|---------------------------------|

Chorus:
(Just Another Week…)

e|--00000000--00000000--00000000--00000000--|
B|--00000000--00000000--00000000--00000000--|
G|--22222222--11111111--66666666--44444444--|
D|--22222222--22222222--66666666--44444444--|
A|--00000000--22222222--44444444--22222222--|
E|------------00000000----------------------|
                                                                                        x2
e|--00000000--00000000--00000000--00000000--|
B|--00000000--00000000--00000000--00000000--|
G|--22222222--11111111--44444444--44444444--|
D|--22222222--22222222--44444444--44444444--|
A|--00000000--22222222--22222222--22222222--|
E|------------00000000----------------------|

C#m           A
I'm Not Gonna Lie
        E               F#m
My Skin And Bones Have Seen Some Better Days
C#m            A             E         F#m
Thirty Pounds Ago Seemed Like A More Stable Place To Stay


A
I'm Not Gonna Lie

My Skin And Bones Have Seen Some Better Days


C#m
I'm Not Gonna Lie
        E*                               E**
My Skin And Bones Have Seen Some Better Days



Chorus Repeats


E
There's No Point To The Floorboards In My House
E
Nothing Feels Right
E
And I Can't Stand Up Without You
E
Nothing Feels Right



Instrumental:
(A , E , A , E)


Chorus Repeats


End On (E)


************************************

| /   slide up
| \   slide down
| h   hammer-on
| p   pull-off
| ~   vibrato
| +   harmonic
| x   Mute note
| b   Bend
| pb  Pre-bend
| br  Bend release
| pbr Pre-bend release
| brb Bend release bend

************************************
Tap to rate this tab
 
# A B C D E F G H I J K L M N O P Q R S T U V W X Y Z