Song name
# A B C D E F G H I J K L M N O P Q R S T U V W X Y Z

Real Life - Send Me An Angel tab

E---------------------------------|
B---------9-7---------10-----9----|
G-----6-9-----------6----------9--|
D---7-------------7--------7------|
A---------------------------------|
E---------------------------------|

E--------12-9--------12-14--------12-9-----9------|
B-----10----------10-----------10-----------------|
G--11----------11-----------11----------11---9-11-|
D-------------------------------------------------|
A-------------------------------------------------|
E-------------------------------------------------|
Tap to rate this tab
# A B C D E F G H I J K L M N O P Q R S T U V W X Y Z