Song name
# A B C D E F G H I J K L M N O P Q R S T U V W X Y Z

Real Mckenzies - Pour Decisions tab

-------------------------------------------------------------------------------
			 Pour Decisions - The Real McKenzies
-------------------------------------------------------------------------------

tabbed by andy pallavicini (istillhateyou@hotmail.com)
i couldn't make out what the guitarist was playing during the other bits except i know 
rhythm guitar keeps to the same notes as the main riff

Intro
e|---------------------------------------------------------------------------|
B|---------------------------------------------------------------------------|
G|-4-9--9999-----------------------------------------------------------------|
D|-4-9--9999--6-11--11111111-------------------------------------------------|
A|-2-7--7777--6-11--11111111-------------------------------------------------|
E|------------4-9---9-9-9-9--------------------------------------------------|
  Play this 3 times

e|---------------------------------------------------------------------------|
B|---------------------------------------------------------------------------|
G|---------------------------------------------------------------------------|
D|--9------------------------------------------------------------------------|
A|--9------------------------------------------------------------------------|
E|--7------------------------------------------------------------------------|
   Let it ring

Main Riff
e|---------------2-4-2-------------2-4-2-------------------------------------|
B|----0-2-4-2-0--------4--2-4-2-0---------4--2-4-2-0-2-4---------------------|
G|--4-----------------------------------------------------1-1-0-1----0h1h2---|
D|---------------------------------------------------------------------------|
A|---------------------------------------------------------------------------|
E|---------------------------------------------------------------------------|


e|---------------2-4-2-------------2-4-2-------------------------------------|
B|----0-2-4-2-0--------4--2-4-2-0---------4--2-4-2-0-2-4---------------------|
G|--4-----------------------------------------------------1-1-0-1------------|
D|---------------------------------------------------------------------------|
A|---------------------------------------------------------------------------|
E|---------------------------------------------------------------------------|


| /  slide up
| \  slide down
| h  hammer-on
| p  pull-off
| ~  vibrato
| +  harmonic
| .  palm mute
| ^  up-stroke
===============================================================================
Tap to rate this tab
 
# A B C D E F G H I J K L M N O P Q R S T U V W X Y Z