Song name
# A B C D E F G H I J K L M N O P Q R S T U V W X Y Z

Reality Addiction - I Never Asked tab

(Band Page: http://www.myspace.com/realityaddiction)


(Intro)            X3
e|--------|--------||--------|-------------------|
B|33------|--------||33------|-------------------|
G|--230x--|--------||--230x--|-------------------|
D|--------|--------||--------|-8(10)(10)(10)(10)x|
A|--------|--------||--------|-8(10)(10)(10)(10)x|
D|--------|-335555x||--------|-8(10)(10)(10)(10)x|


(Verse 1)            X4                X3
e|--------|--------||--------|--------||--------|--------|
B|--------|--------||--------|--------||--------|--------|
G|--------|--------||--------|--------||--------|--------|
D|0000----|33335555||0000----|--------||0000----|--------|
A|----0000|--------||----0000|--------||----0000|--------|
D|--------|--------||--------|33335555||--------|--------|


(Pre-Chorus)             X4
e|--------------|--------||
B|--------------|--------||
G|--------------|--------||
D|(12)(12)785x--|-335555x||
A|(12)(12)785x--|-335555x||
D|(12)(12)785x--|-335555x||


(Chorus)                       X3
e|--------------------|--------||--------|
B|--------------------|--------||--------|
G|--------------------|--------||----7777|
D|(12)(12)(12)(12)8888|33335555||----7777|
A|(12)(12)(12)(12)8888|33335555||77775555|
D|(12)(12)(12)(12)8888|33335555||7777----|


(V2, same as V1)


(Bridge)
e|-----------------------|---------|--------|--------|--------|--------|
B|-----------------------|---------|--------|--------|--------|--------|
G|-----------------------|---------|--------|--------|--------|--------|
D|(12)(12)(12)x--(12)(12)|12x------|777x--77|7x------|8-----3-|--------|
A|(12)(12)(12)x--(12)(12)|12x------|777x--77|7x------|8-----3-|--------|
D|(12)(12)(12)x--(12)(12)|12x------|777x--77|7x------|8-----3-|--------|

e|----------|--------------------------||
B|----------|--------------------------||
G|----------|--------------------------||
D|7--10--12-|-(12)(12)(12)(12)(12)(12)x||
A|7--10--12-|-(12)(12)(12)(12)(12)(12)x||
D|7--10--12-|-(12)(12)(12)(12)(12)(12)x||


(Chorus X2)


(fin)
e|--------|--------------------------------|--------------------------------|
B|--------|--------------------------------|--------------------------------|
G|77777777|(10)(10)(10)(10)(10)(10)(10)(10)|(12)(12)(12)(12)(12)(12)(12)(12)|
D|77777777|(10)(10)(10)(10)(10)(10)(10)(10)|(12)(12)(12)(12)(12)(12)(12)(12)|
A|55555555|(8-)(8-)(8-)(8-)(8-)(8-)(8-)(8-)|(10)(10)(10)(10)(10)(10)(10)(10)|
D|--------|--------------------------------|--------------------------------|

e|-------------------------|---------|
B|-------------------------|---------|
G|(14)(14)(14)-------------|---------|
D|(14)(14)(14)(12)---(12)--|12-------|
A|(12)(12)(12)(12)---(12)--|12-------|
D|------------(12)---(12)--|12-------|

(I vowed never to do this again... I didn't work)
Tap to rate this tab
 
# A B C D E F G H I J K L M N O P Q R S T U V W X Y Z