Song name
# A B C D E F G H I J K L M N O P Q R S T U V W X Y Z

Reality Addiction - Almost Beautiful tab

-----------------------------------------------------------------------
		     Almost Beautiful- Reality Addiction
-----------------------------------------------------------------------
Tabbed by: Brooks21
Email:claytonbrooks01@yahoo.com

The song is in standard tuning with the capo on the 2nd fret. The song is very basic
except for the intro. I suggest playing along with the song at first to get the idea. Every
time the single note is hit in the intro up stroke the single note and quickly down 
stroke while muting the next note. I havent figured out the solo yet that will be posted at a
later date.

Chords used: G, Cad9, Em, D

Tuning: standard Capo 2nd fret

Intro part one

Guitar 1
   G       Cad9         G      Cad9
e|------------------------------------------------------------|
B|------------------------------------------------------------|
G|-0-0-0-0-0-0-0-0-0-0-0-0-0-0-0-0-0-0-0-0--------------------| x4
D|-0-0--0--2-2--2--2-2-0-0--0--2-2--2--2-2--------------------|
A|-2-2--2--3-3--3--3-3-2-2--2--3-3--3--3-3--------------------|
E|-3-3-----0-0-----0-0-3-3-----0-0-----0-0--------------------|
        x       x           x       x
Guitar 2

e|-------------------------------------------------------------|
B|------------------------------------------+12+-+7+-----------| x4
G|---------------------------------------+12+-------+7+--------|
D|-------------------------------------------------------------|
A|-------------------------------------------------------------|
E|-------------------------------------------------------------|

Guitar 1
   G       Cad9        G       Cad9
e|-----------------------------------------------------------------|
B|-----------------------------------------------------------------|
G|-0---0-0-0-0-0-0-0-0-0-0-0-0-0-0-0-0-0-0-----play this twice-----|
D|-0----0--2-2--2--2-2-0-0--0--2-2--2--2-2-----and just the first--|
A|-0h2--2--3-3--3--3-3-2-2--2--3-3--3--3-3-----half the third time-|
E|-3-------0-0-----0-0-3-3-----0-0-----0-0-------------------------|
        x       x           x       x
Guitar 2

e|-----------------------------------------------------------------|
B|------------------------------------------+12+-+7+---------------|
G|---------------------------------------+12+------+7+-------------|
D|-----------------------------------------------------------------|
A|-----------------------------------------------------------------|
E|-----------------------------------------------------------------|

 Guitar 1
   G
e|-----------------------------------------------------------------|
B|-----------------------------------------------------------------|
G|-0-0-0-0-0-0-0-0-------------------------------------------------|
D|-0-0-0-0-0-0-0-0-------------------------------------------------|
A|-2-2-2-2-2-2-2-2-------------------------------------------------|
E|-3-3-3-3-3-3-3-3-------------------------------------------------|

Guitar 2

e|-----------------------------------------------------------------|
B|------------------+12+-+7+---------------------------------------|
G|---------------+12+------+7+-------------------------------------|
D|-----------------------------------------------------------------|
A|-----------------------------------------------------------------|
E|-----------------------------------------------------------------|

Intro part 2
Guitar 1
   G      Cad9        D
e|--------------------2-2------------------------------------------|
B|--------------------3-3------------------------------------------|
G|-0-0-0-0-0-0-0--0-0-2-2-2-2---2-2-2-2-2-2h4p2p0------------------|x3
D|-0-0--0--2-2--2-2-2-0-0----0-0-----------------------------------|
A|-2-2--2--3-3--3-3-3----------------------------------------------|
E|-3-3-----0-0----0-0----------------------------------------------|
        x       x           x  x  x   x
Guitar 2

e|-----------------------------------------------------------------|
B|--------------------------------------------------+12+-+7+-------|
G|-----------------------------------------------+12+------+7+-----|x3
D|-----------------------------------------------------------------|
A|-----------------------------------------------------------------|
E|-----------------------------------------------------------------|

Guitar 1
   Cad9
e|-----------------------------------------------------------------|
B|-----------------------------------------------------------------|
G|-0-0-0-0-0-0-0-0-------------------------------------------------|
D|-2-2-2-2-2-2-2-2-------------------------------------------------|
A|-3-3-3-3-3-3-3-3-------------------------------------------------|
E|-----------------------------------------------------------------|

Verse 1
All Guitar 1
    G        Cad9                                Em       D
e|-3-3-3-3--3-3-3-3-3-3-3-3-3-3-3-3-3-3-3-3-3-3---------2-2-2-2----|
B|-3-3-3-3--3-3-3-3-3-3-3-3-3-3-3-3-3-3-3-3-3-3---------3-3-3-3----|
G|-0-0-0-0--0-0-0-0-0-0-0-0-0-0-0-0-0-0-0-0-0-0-0-0-0-0-2-2-2-2----|
D|-0-0-0-0--2-2-2-2-2-2-2-2-2-2-2-2-2-2-2-2-2-2-2-2-2-2-0-0-0-0----| x3
A|-2-2-2-2--3-3-3-3-3-3-3-3-3-3-3-3-3-3-3-3-3-3-2-2-2-2------------|
E|-3-3-3-3--------------------------------------0-0-0-0------------|
         X                                            X
    G        Cad9                                Em
e|-3-3-3-3--3-3-3-3-3-3-3-3-3-3-3-3-3-3-3-3-3-3--------------------|
B|-3-3-3-3--3-3-3-3-3-3-3-3-3-3-3-3-3-3-3-3-3-3--------------------|
G|-0-0-0-0--0-0-0-0-0-0-0-0-0-0-0-0-0-0-0-0-0-0-0-0-0-0-0-0-0-0----|
D|-0-0-0-0--2-2-2-2-2-2-2-2-2-2-2-2-2-2-2-2-2-2-2-2-2-2-2-2-2-2----|
A|-2-2-2-2--3-3-3-3-3-3-3-3-3-3-3-3-3-3-3-3-3-3-2-2-2-2-2-2-2-2----|
E|-3-3-3-3--------------------------------------0-0-0-0-0-0-0-0----|
         X
     D
e|-2-2-2-2-2-2-2-2---------|
B|-3-3-3-3-3-3-3-3---------|
G|-2-2-2-2-2-2-2-2---------|
D|-0-0-0-0-0-0-0-0---------|
A|-------------------------|
E|-------------------------|

Chorus 1
   Cad9     D          Em        D
e|-0-0-0-0-2-2-2-2-2-2---------2-2-2-2-2-2-------------------------|
B|-3-3-3-3-3-3-3-3-3-3---------3-3-3-3-3-3-------------------------|
G|-0-0-0-0-2-2-2-2-2-2-0-0-0-0-2-2-2-2-2-2-------------------------| x3
D|-2-2-2-2-0-0-0-0-0-0-2-2-2-2-0-0-0-0-0-0-------------------------|
A|-3-3-3-3-------------2-2-2-2-------------------------------------|
E|---------------------0-0-0-0-------------------------------------|

    Cad9            D
e|-0-0-0-0-0-0-0-0-2-2-2-2-2-2-2-2---------------------------------|
B|-3-3-3-3-3-3-3-3-3-3-3-3-3-3-3-3---------------------------------|
G|-0-0-0-0-0-0-0-0-2-2-2-2-2-2-2-2---------------------------------|
D|-2-2-2-2-2-2-2-2-0-0-0-0-0-0-0-0---------------------------------|
A|-3-3-3-3-3-3-3-3-------------------------------------------------|
E|-----------------------------------------------------------------|

Back to the second part of the intro

Verse 2
    G      Cad9       Em       D
e|-3-3-3-3-3-3-3-3-3----------2-2-2-2-2----------------------------|
B|-3-3-3-3-3-3-3-3-3----------3-3-3-3-3----------------------------|
G|-0-0-0-0-0-0-0-0-0--0-0-0-0-2-2-2-2-2----------------------------| x3
D|-0-0-0-0-2-2-2-2-2--2-2-2-2-0-0-0-0-0----------------------------|
A|-2-2-2-2-3-3-3-3-3--2-2-2-2--------------------------------------|
E|-3-3-3-3------------0-0-0-0--------------------------------------|
         x                  x
    G      Cad9        Em             D
e|-3-3-3-3-3-3-3-3-3------------------2-2-2-2-2-2-2-2--------------|
B|-3-3-3-3-3-3-3-3-3------------------3-3-3-3-3-3-3-3--------------|
G|-0-0-0-0-0-0-0-0-0--0-0-0-0-0-0-0-0-2-2-2-2-2-2-2-2--------------|
D|-0-0-0-0-2-2-2-2-2--2-2-2-2-2-2-2-2-0-0-0-0-0-0-0-0--------------|
A|-2-2-2-2-3-3-3-3-3--2-2-2-2-2-2-2-2------------------------------|
E|-3-3-3-3------------0-0-0-0-0-0-0-0------------------------------|

Play chorus again then the second part of the intro

Bridge
    G      Cad9      D       Cad9
e|-3-3-3-3-3-3-3-3-3-2-2-2-2-3-3-3-3-3-----------------------------|
B|-3-3-3-3-3-3-3-3-3-3-3-3-3-3-3-3-3-3-----------------------------| X4
G|-0-0-0-0-0-0-0-0-0-2-2-2-2-0-0-0-0-0-----------------------------|end on
D|-0-0-0-0-2-2-2-2-2-0-0-0-0-2-2-2-2-2-----------------------------|   G
A|-2-2-2-2-3-3-3-3-3---------3-3-3-3-3-----------------------------|
E|-3-3-3-3---------------------------------------------------------|

last chorus
   Cad9   D         Em     D
e|-3-3-3--2----------------2---------------------------------------|
B|-3-3-3--3----------------3---------------------------------------|
G|-0-0-0--2---------0-0-0--2---------------------------------------|
D|-2-2-2--0---------2-2-2--0---------------------------------------| x3
A|-3-3-3------------2-2-2------------------------------------------|
E|------------------0-0-0------------------------------------------|

   Cad9            D
e|-0-0-0-0-0-0-0-0-2-2-2-2-2-2-2-2---------------------------------|
B|-3-3-3-3-3-3-3-3-3-3-3-3-3-3-3-3---------------------------------|
G|-0-0-0-0-0-0-0-0-2-2-2-2-2-2-2-2---------------------------------|
D|-2-2-2-2-2-2-2-2-0-0-0-0-0-0-0-0---------------------------------|
A|-3-3-3-3-3-3-3-3-------------------------------------------------|
E|-----------------------------------------------------------------|

ending

   Em                  D
e|---------------------2-2-2-2-2-2-2-2-2-2-------------------------|
B|---------------------3-3-3-3-3-3-3-3-3-3-------------------------|
G|-0-0-0-0-0-0-0-0-0-0-2-2-2-2-2-2-2-2-2-2-------------------------| x2
D|-2-2-2-2-2-2-2-2-2-2-0-0-0-0-0-0-0-0-0-0-------------------------|
A|-2-2-2-2-2-2-2-2-2-2---------------------------------------------|
E|-0-0-0-0-0-0-0-0-0-0---------------------------------------------|

   Em                  D                   G
e|---------------------2-2-2-2-2-2-2-2-2-2-3-----------------------|
B|---------------------3-3-3-3-3-3-3-3-3-3-3-----------------------|
G|-0-0-0-0-0-0-0-0-0-0-2-2-2-2-2-2-2-2-2-2-0-----------------------|
D|-2-2-2-2-2-2-2-2-2-2-0-0-0-0-0-0-0-0-0-0-0-----------------------|
A|-2-2-2-2-2-2-2-2-2-2---------------------2-----------------------|
E|-0-0-0-0-0-0-0-0-0-0---------------------3-----------------------|
Tap to rate this tab
# A B C D E F G H I J K L M N O P Q R S T U V W X Y Z