Song name
# A B C D E F G H I J K L M N O P Q R S T U V W X Y Z

Reality Addiction - Bleeding Through tab

Reality Addiction
Bleeding Through
Key:No Idea


Verse:
e|-------5|h7------|-------5|h7------|--------|--------|
B|3/5-----|--------|3/5-----|--------|5-------|3-------|
G|--------|--------|--------|--------|--------|--------|
D|--------|--------|--------|--------|--------|--------|
A|--------|--------|--------|--------|--------|--------|
D|--------|--------|--------|--------|--------|--------|

e|--------|--------|--------|--------|
B|00011133|00011133|00011133|00011133|
G|--------|--------|--------|--------|
D|--------|--------|--------|--------|
A|--------|--------|--------|--------|
D|--------|--------|--------|--------|

e|55550000|77770000|88880000|10-10-10-10|
B|--------|--------|--------|-----------|
G|--------|--------|--------|-----------|
D|--------|--------|--------|-----------|
A|--------|--------|--------|-----------|
D|--------|--------|--------|-----------|


Chorus:
e|------------------------|------------------------|
B|12-12-12-13-13-13-15-15-|12-12-12-13-13-13-15-15-|
G|------------------------|------------------------|
D|------------------------|------------------------|
A|------------------------|------------------------|
D|------------------------|------------------------|

e|12-12-12-12-12-12-13-13-|------------------------|
B|------------------------|15-15-15-13-13-13-12-12-|
G|------------------------|------------------------|
D|------------------------|------------------------|
A|------------------------|------------------------|
D|------------------------|------------------------|

Musical Break:
e|12-----------14-|15-----------14-|15-----------12-|
B|----------------|----------------|----------------|
G|----------------|----------------|----------------|
D|----------------|----------------|----------------|
A|----------------|----------------|----------------|
D|----------------|----------------|----------------|

e|----------------|12-----------14-|15-----------14-|
B|12--------------|----------------|----------------|
G|----------------|----------------|----------------|
D|----------------|----------------|----------------|
A|----------------|----------------|----------------|
D|----------------|----------------|----------------|

e|17---15-17-----------15-|13---------10-----------|
B|------------------------|------------------------|
G|------------------------|------------------------|
D|------------------------|------------------------|
A|------------------------|------------------------|
D|------------------------|------------------------|



(Verse 2)


(Chorus)



Bridge:
e|------------------------|------------------------|
B|12-12-12-13-13-13-15-15-|12-12-12-13-13-13-15-15-|
G|------------------------|------------------------|
D|------------------------|------------------------|
A|------------------------|------------------------|
D|------------------------|------------------------|

e|------------------------|------------------------|
B|12-12-12-13-13-13-15-15-|12-12-12-13-13-13-15-15-|
G|------------------------|------------------------|
D|------------------------|------------------------|
A|------------------------|------------------------|
D|------------------------|------------------------|

e|------------------------|------------------------|
B|12-12-12-13-13-13-15-15-|12-12-12-13-13-13-15-15-|
G|------------------------|------------------------|
D|------------------------|------------------------|
A|------------------------|------------------------|
D|------------------------|------------------------|

e|------------------------|--------------------|
B|12-12-12-13-13-13-15-15-|15-15-15-15-xxxxxxxx|
G|------------------------|--------------------|
D|------------------------|--------------------|
A|------------------------|--------------------|
D|------------------------|--------------------|


(Chorus)


Final note: e|5-------|


Notes:
-I really don't know what key the song is in. The chords seem to be in Am while the lead 
guitar plays around with Em and Am.
Tap to rate this tab
 
# A B C D E F G H I J K L M N O P Q R S T U V W X Y Z