Song name
# A B C D E F G H I J K L M N O P Q R S T U V W X Y Z

Reason To Ignite - One Trick Pony tab

-------------------------------------------------------------------------------
			     One Trick Pony - Reason To Ignite
-------------------------------------------------------------------------------
Tabbed by:Hannibal_Lectar
Email:Theking28411@yahoo.com

Tuning: Tune down a half step , then tune like Drop D

Reason To Ignite is a local metal band from NC Wilmington
www.reasontoignite.com

INTRO
e|---------------------------------------------------------------------------|
B|---------------------------------------------------------------------------|
G|---------------------------------------------------------------------------|
D|---------------------------------------------------------------------------|
A|-7---------2---3-2---------------------------------------------------------|
D|-7---------2---3-2---------------------------------------------------------|

VERSE PART 1                        PART 2
e|---------------------------------|-----------------------------------------|
B|---------------------------------|-----------------------------------------|
G|---------------------------------|-----------------------------------------|
D|---------------------------------|-----------------------------------------|
A|-7-7-7-7-7-7-7-7--2-2-2-2-2-3-3-2|-7-7-7-7-7-7-7-7--2-2-2-2-2-3-3-2--------|
D|-7-7-7-7-7-7-7-7--2-2-2-2-2-3-3-2|-----------------------------------------|
   . .   . .   .    . .   . .   .    . .   . .   .    . .   . .   .

BRIDGE
e|---------------------------------------------------------------------------|
B|---------------------------------------------------------------------------|
G|---------------------------------------------------------------------------|
D|---------------------------------------------------------------------------|
A|-7-7-7-7-7-7-7-7---2-2-2--3-2----------------------------------------------|
D|-7-7-7-7-7-7-7-7---2-2-2--3-2----------------------------------------------|

OUTRO
e|---------------------------------------------------------------------------|
B|---------------------------------------------------------------------------|
G|---------------------------------------------------------------------------|
D|---------------------------------------------------------------------------|
A|-2-3-2-3-2---2-3-2---2-3-2-3-7---------------------------------------------|
D|-2-3-2-3-2---2-3-2---2-3-2-3-7---------------------------------------------|

INTRO X4
VERSE PART 1 X4
VERSE PART 2 X4
BRIDGE X4
VERSE PART 1 X4
VERSE PART 2 X4
BRIDGE X4
OUTRO X8







| .  Palm Mute
| /  slide up
| \  slide down
| h  hammer-on
| p  pull-off
| ~  vibrato
| +  harmonic
| x  Mute note
===============================================================================
Tap to rate this tab
# A B C D E F G H I J K L M N O P Q R S T U V W X Y Z