Song name
# A B C D E F G H I J K L M N O P Q R S T U V W X Y Z

Reba Mcentire - How Blue tab

-------------------------------------------------------------------------------
                             HOW BLUE - Reba McEntire
-------------------------------------------------------------------------------
Tabbed by: vegamusic
E-mail: vegamusic@gmx.com

Tuning: Standard

e|---------------------------------------------------------------5-3---------|
B|-----------------------------5-7-5-----------------------3-2-3----6--------|
G|-----------------4-4-3-4-6-7-------7-------2-5-4-3-4-3-4-------------------|
D|---------------4-------------------------3---------------------------------|
A|-----0-2-4-5-7-----------------------4-5-----------------------------------|
E|---------------------------------------------------------------------------|

e|----9-9b-7-9-7----9-0---7--------------------7-----------------------------|
B|--------------10-----7---10--------------------10--------------------------|
G|----------------------------10-9b-(9)-7---7------10-9-7--------------------|
D|----------------------------------------9---------------10-9-7-5-3-0-------|
A|---------------------------------------------------------------------------|
E|---------------------------------------------------------------------------|


************************************

| /   slide up
| \   slide down
| h   hammer-on
| p   pull-off
| ~   vibrato
| +   harmonic
| x   Mute note
| b   Bend
| pb  Pre-bend
| br  Bend release
| pbr Pre-bend release
| brb Bend release bend

************************************
Tap to rate this tab
 
# A B C D E F G H I J K L M N O P Q R S T U V W X Y Z