Guitaretab - guitar tabs
Song name
# A B C D E F G H I J K L M N O P Q R S T U V W X Y Z

Rebaelliun - Annihilation tab

                        REBAELLIUN - ANNIHILATION
                       From the Album ANNIHILATION
                        Copyright 2001 HAMMERHEART

                          Version 1.0 - JAN '02

Transcribed by: death8699

For Questions, Comments, Newest Version, or Corrections contact
 death8699: at archenemies@aol.com

Check Out Death8699.com, With More Transcriptions On It:
 http://www.death8699.com




.  - palm mute                  /  - slide up to
\  - slide down to              ~  - vibrato             
h  - hammer on                  b  - bend 
p  - pull off                   Suffixes for bend    
ph - pinch harmonic             f - full bend    h - half bend
*  - see comment                r - release      t - tap bend
X  - percussion mute            ~ - vibrato bend
@  - slight palm mute           () - ghost note, sustained note

Tune Gtr to E flat

* * * A N N I H I L A T I O N * * *

Fill 1
|---------|
|---------|
|---------|Gtrs 
|---9-(9)-|I&II
|-2-------|
|-0-7-(7)-|
  .


Riff A                  
|-----------|---------------------|---------------------|
|-----------|---------------------|---------------------|
|-9999------|-101010-10/12-9------|-101010-10/12-9------|Gtrs 
|-9999------|-101010-10/12-9------|-101010-10/12-9------|I&II
|-7777------|-8-8-8---8/10-7------|-8-8-8---8/10-7------|
|------0000-|----------------0000-|----------------0000-|


Riff A 7tx


Fill 2
|-------------|
|-------------|
|-------------|Gtrs
|-------------|I&II
|-2---2---2---|
|-0---0---0---|
  .   .   .


Riff A.1
|-----------|---------------------|---------------------|
|-----------|---------------------|---------------------|
|-----------|---------------------|---------------------|Gtrs 
|-9999------|-101010-10/12-9------|-101010-10/12-9------|I&II
|-7777------|-8-8-8---8/10-7------|-101010--8/10-9------|
|-7777-0000-|-8-8-8---8/10-7-0000-|-8-8-8---8/10-7-0000-|


Riff A 7tx


Riff B
|---------------------------|----------------------------|
|---------------------------|----------------------------|
|-------7/9-9-------8/10-10-|--------7/9-9-------8/10-10-|Gtrs
|---------------------------|----------------------------|I&II
|-------5/7-7-------6/8--8--|--------5/7-7-------6/8--8--|
|-00000-------00000---------|-00000--------00000---------|
  .....       .....           .....        .....


Riff B 3tx
Riff A.1 8tx
Riff B 4tx


Riff C
|--------------------------|--------------------------|
|--------------------------|--------------------------|
|--------------------------|--------------------------|Gtrs
|------3456567878987-------|------3456567878987-------|I&II
|-8765---------------10987-|-8765---------------10987-|
|--------------------------|--------------------------|
  .... .............  ....   .... .............  ....


Riff C 3tx


Riff C.1
|---------------------------------|---------------------------------|
|---------------------------------|---------------------------------|
|---------------------------------|---------------------------------|Gtrs
|-------56787891091011109---------|-------56787891091011109---------|I&II
|-10987-------------------1211109-|-10987-------------------1211109-|
|---------------------------------|---------------------------------|
   .... ....... .. . . . . . . ..    .... ....... .. . . . . . . ..


Riff C.1 3tx


Riff D
|----------------------------------------------|
|----------------------------------------------|
|------9/10\9------9/10\9------9/10\9-7/9-10\9-|Gtrs
|----------------------------------------------|I&II
|------7 /8\7------7/ 8\7------7/-8\7-5/7--8\7-|
|-0000--------0000--------0000-----------------|
  ....        ....        ....                   


Riff D 2tx


Riff D.1
|------------------------------------------|
|------------------------------------------|
|----------------9h10p9--------------------|Gtr
|------7h8p7-----------------7h8p7-5h7-8p7-| I
|------------------------------------------|
|-0000-------0000-------0000---------------|
| ....       ....       ....                
|
|------------------------------------------|
|------------------------------------------|
|------------------------------------------|Gtr
|------------------------------------------| II
|------7h8p7------7h8p7------7h8p7-5h7-8p7-|
|-0000-------0000-------0000---------------|
  ....       ....       ....                


Riff D.1 2tx
Riff D 2tx
Riff D.1 2tx
Riff D 2tx
Riff D.1 2tx
Riff D 2tx
Riff D.1 2tx


Riff C.2
|-----------------|-----------------|
|-----------------|-----------------|
|-----------------|-----------------|Gtrs
|-----------------|-----------------|I&II
|-----------------|-----------------|
|-321023454324321-|-321023454324321-|
  ...............   ...............
 

Riff C.2 3tx
Riff D 2tx
Riff D.1 2tx
Riff D 2tx
Riff D.1 2tx


Fill 3
|-----------|
|-----------|
|-----------|Gtrs 
|-----9-(9)-|I&II
|-2-2-------|
|-0-0-7-(7)-|
  . .


Riff A 8tx
Fill 2


Riff E
|-----------------------------------|-----------------------------------|
|-----------------------------------|-----------------------------------|
|-----------------------------------|-----------------------------------|Gtrs
|-----------------------------------|-----------------------------------|I&II
|------------------7777777766666666-|------------------7777777766666666-|
|-2222222211111111------------------|-2222222211111111------------------|


Riff E.1
|----------------------------------|--------------------------------------|
|----------------------------------|--------------------------------------|
|----------------------------------|--------------------------------------|Gtrs
|----------------------------------|--------------------------------------|I&II
|----------------------------------|--------------------------------------|
|-22222222222222228888888888888888-|-11111111111111117777777777777777-8p7-|


Riff F
|----------------------------------|-----------------------------------------------|
|----------------------------------|-----------------------------------------------|
|----------------------------------|-----------------------------------------------|Gtrs
|----------------------------------|-----------------------------------------------|I&II
|----------------------------------|-------------------------------------------5---|
|-11111111111111114444444444444444-|-0000000000000000-4p3-0000000000000000-2p1-3---|


Riff G
|--------------------------------------|--------------------------------------|
|--------------------------------------|--------------------------------------|
|--------------------------------------|--------------------------------------|Gtrs
|--------------------------------------|--------------------------------------|I&II
|------------------3-----------------5-|------------------3-----------------5-|
|-0000000000000000-1-5-4-3-2-4-3-2-1-3-|-0000000000000000-1-5-4-3-2-4-3-2-1-3-|
                     . . . . . . . .                        . . . . . . . . 


Riff G 3tx


Riff H
|-----------------------------------|-----------------------------------|
|-----------------------------------|-----------------------------------|
|-----------------------------------|-----------------------------------|Gtrs
|-----------------------------------|-----------------------------------|I&II
|------------------8888888888888888-|------------------8888888888888888-|
|-5555555577778888------------------|-5555555577778888------------------|


Riff H 2tx


Riff H.1
|----------------------------------|
|----------------------------------|
|----------------------------------|Gtrs
|----------------------------------|I&II
|----------------------------------|
|-00000000222233338888888888888888-|


Riff I
|-------------------------------------------------|
|-------------------------------------------------|
|-9999------10101010------9999------10101010------|Gtrs
|-9999------10101010------9999------10101010------|I&II
|-7777------8-8-8-8-------7777------8-8-8-8-------|
|------0000----------0000------0000----------0000-|
|
|-----------------------------------------------------|
|-----------------------------------------------------|
|-9999------10101010------12121212------14141414------|Gtrs
|-9999------10101010------12121212------14141414------|I&II
|-7777------8-8-8-8-------10101010------12121212------|
|------0000--------------------------------------0000-|


Riff I 1tx


Ending
|------------------------------------------------------------|
|------------------------------------------------------------|
|-16161616------16161616------17171717------17171717------9\-|Gtrs
|-16161616------16161616------17171717------17171717------9\-|I&II
|-14141414------14141414------15151515------15151515------7\-|
|----------0000----------0000----------0000----------0000----|


Check Out Death8699.com, With More Transcriptions On It:
 http://www.death8699.co
[ Tab from: http://www.guitaretab.com/r/rebaelliun/43138.html ]