Song name
# A B C D E F G H I J K L M N O P Q R S T U V W X Y Z

Rebecca Black - Friday tab

"Friday" by Rebecca Black. Tabbed by Kevin McGhee

Standard Tuning and or Drop D. Your choice.



Intro/Verses/Chorus

Guitar 1 - Lead Guitar



e|----------------------------------------------------|
B|----------------------------------------------------|
G|----------------------------------------------------|
D|99999999966666666141414141414141416161616161616-----|
A|99999999966666666141414141414141416161616161616-----|
E|77777777744444444121212121212121214141414141414-----|



Interlude - Guitar 1 (Lead) (You basically play the chords as single notes at this point)



e|----------------------------------------------------------------------------|
B|----------------------------------------------------------------------------|
G|----------------------------------------------------------------------------|
D|---4--4-4-------------------------------------------------------------------|
A|22-22-2-----6--6-6--------2---2-----4---4----4------------------------------|
E|----------44-44-4-------00--00-0--22--22---2--------------------------------|







Interlude - Rhythm Guitar (This is in the background, it's kind of hard to hear but it's there.)



e|------------12-----14-------------------------------------------------------|
B|12-----9--------------------------------------------------------------------|
G|----------------------------------------------------------------------------|
D|----------------------------------------------------------------------------|
A|----------------------------------------------------------------------------|
E|----------------------------------------------------------------------------|







Then just repeat the verse chords until the end. Have fun! :D
Tap to rate this tab
 
# A B C D E F G H I J K L M N O P Q R S T U V W X Y Z