Song name
# A B C D E F G H I J K L M N O P Q R S T U V W X Y Z

Rebecca Ferguson - Nothings Real But Love tab

Nothing's Real but Love - Rebecca Ferguson
tabbed by igmeiner@gmx.net, Capo 1, v=Down, ^=Up
Intro(played 2 times):

e-3-----3-----3--3-3--3-3-3-3----3---3--3-3-3-3-3-3-3-|
b-0-----0-----1--1-0--0-0-0-1----1--------1-1-1-1-1-1-|
g-0-----0-----0--0-0--0-0-0-0----0--------0-0-0-0-0-0-|
D-0-----0-----2--2-0--0-0-0-2----2--------2-2-2-2-2-2-|
A-2-----2-------------------0----0--------------------|
E-3-----3---------------------------------------------|
  V     v     v  v ^  ^ v ^ V    v   ^  ^ v ^ v ^ v ^

G             Am7
Standing in a line
                    G
Wonder why it don't move
             Am7
Tryna get a hand
                            G
Watching people break the rules
                    Am7                       Bm7
And maybe the man in charge, doesn't like my face
                          Em
But then this world's not always good

Chorus:
     C                 G
And nothing's real but love
           D        Am7
Nothing's real but love
G/B   C                      D         G
No   money, no house, no car, can beat love...

e-3-----3-----3--3-3--3-3-3-3----3---3--3-3-3-3-3-3-3-|
b-0-----0-----1--1-0--0-0-0-1----1--------1-1-1-1-1-1-|
g-0-----0-----0--0-0--0-0-0-0----0--------0-0-0-0-0-0-|
D-0-----0-----2--2-0--0-0-0-2----2--------2-2-2-2-2-2-|
A-2-----2-------------------0----0--------------------|
E-3-----3---------------------------------------------|
  V     v     v  v ^  ^ v ^ V    v   ^  ^ v ^ v ^ v ^

 G                       Am7
They watch us open-mouthed
                        G
As we joke around like fools
                     Am7
See who can be the worst
                  G
Watch what I can do
                                 Am7
But then the door gets slammed, slammed right in my face
Bm7                            Em
  And I guess this world's not always good


Chorus:
     C                 G
And nothing's real but love
           D        Am7
Nothing's real but love
G/B    C                    D           G
No    house, no car, no job   can beat love...ouh
          Am7
It won't fill you up
G/B     C                      D          G
No    money, no house, no car,   is like love...
          Am7         C   D
La la la la  la la la la

Bridge:
Dm7            Dm7/G   G
I put it all away
            Em
Holding it down for a rainy day
      Asus4                 A
But what if that day don't come

Chorus:
        G      D     Am7
I need love
G/B    C                      D          G              D
No    money, no house, no car,  is like love... houh..

         Am7
It don't fill you up
         C
It won't build you up

It won't fill you up
          G
It's not love!

                         Am7
And nothing's real but love
G/B   C                      D          G
No   money, no house, no car,   is like love...
                   Am7
Nothing's real but love
    C                      D         G
No money, no house, no car,  is like love....
Tap to rate this tab
 
# A B C D E F G H I J K L M N O P Q R S T U V W X Y Z