Song name
# A B C D E F G H I J K L M N O P Q R S T U V W X Y Z

Rebecca Sugar - Susan Strong chords

Highlighted       Show chord diagrams
-------------------------------------------------------------------------------
                             SUSAN STRONG - Rebecca Sugar
-------------------------------------------------------------------------------
(From Adventure Time)
Tabbed by: DannyKHMSC
E-mail: dannyotheruses@gmail.com

Tuning: STANDARD

I tabbed this by listening to the song in the episode.  I did it for guitar and ukulele,
either work, except in the last part, which is just the chords I created that fit the
arp-like sound at the end, but fit pretty well. Even though in the episode Jake uses a 
guitar, it really sounds to me like a ukulele, but the guitar works too.

In the last part, I used these variations of Em7 (and C/B just in case)

    Em7 (1st time)    Em7 (2nd time)       C/B
e|-------3-----------------0----------------0-------------------------------|
B|-------3-----------------3----------------1-------------------------------|
G|-------0-----------------0----------------0-------------------------------|
D|-------2-----------------0----------------2-------------------------------|
A|-------2-----------------2----------------2-------------------------------|
E|-------0-----------------0----------------x-------------------------------|




G
Susan Strong,
D
This is where you belong.
C
Hangin' with me,
       D
On a fallen tree.
G
Don't you think you deserve this?
D
To live up here on the surface?
C
I think you do,
                     D7
And I think all your friends do too!

Em                             D
How long have you lived in the darkness?
C                           G
I just want to show you the light!
        B7
Because you're a human,
     Em
Just like me Susan,
      C
And I want you in my life.

Em7   Em
Susan Strong,
Em7      C/B
You turn my heart on!



If you're using an ukulele, the chords for this last part are: Em7 Em Em7 C
For both times, use this variation of Em7
A|----5---------------------------------------------------------------------|
E|----3---------------------------------------------------------------------|
D|----4---------------------------------------------------------------------|
G|----4---------------------------------------------------------------------|
Tap to rate this tab
# A B C D E F G H I J K L M N O P Q R S T U V W X Y Z