Song name
# A B C D E F G H I J K L M N O P Q R S T U V W X Y Z

Rebel Meets Rebel - Get Outta My Life tab

damn good song thats all i can say 
well this is my 1st attempt to tab a song 
and ill have to finish the rest of it so here is

tuning:C#F#BEG#C#

C#-----------------------------------------------------------]
G#-----------------------------------------------------------]
E------------------------------------------------------------]
B------------------------------------------------------------]
F#-----------------5----------5------------------------------]
C#---0---0-5-6-7-------6-7---------7-6-5---------------------]
          pm---       pm--

C#--------------------------------------------------------]
G#--------------------------------------------------------]
E---------------------------------------------------------]
B---------------------------------------------------------]
F#-----------------5------7----5--------------------------]
C#---0---0-5-6-7-------7-----7-----7-6-5------------------]
          pm---         pm---

questions comments email me at hopper3442002@yahoo.com
Tap to rate this tab
 
# A B C D E F G H I J K L M N O P Q R S T U V W X Y Z