Song name
# A B C D E F G H I J K L M N O P Q R S T U V W X Y Z

Rebel Meets Rebel - Nothin To Loose tab

REBEL MEETS REBEL
NOTHIN' TO LOSE

TUNING: D G C F A D

  ////INTRO\\\\
                                      W/WAH
|----------------------------------------------------------------------|
|----------------------------------------------x-x-x-x-x-x-x-x---------|
|-11-x-x-11-x-x-x-x-x-11-x-x-x-11-x-x-9-x-x-11-x-x-x-x-x-x-x-x-9-9-9-9-|
|----------------------------------------------------------------------|
|----------------------------------------------------------------------|
|----------------------------------------------------------------------|

|----------------------------14-14--------------------x-----------------|
|----------------------------14-14--------------------x-----------------|
|-11-x-x-11-x-x-x-x-x-11-x-x-------x-x-x-9-x-11-x-x-x---x-9-9-9-9-9-9-9-|
|-----------------------------------------------------------------------|
|-----------------------------------------------------------------------|
|-----------------------------------------------------------------------|

|-----------------------------------------------------------------------|
|----------------------------------14-14-x------------------------------|
|-9-x-x-11--x-x-x-9-9-x-9-x-11-x-x-14-14-x-9-x-x-x-x-x-9-9-9-9-9-9-9-11-|
|-----------------------------------------------------------------------|
|-----------------------------------------------------------------------|
|-----------------------------------------------------------------------|

|--------------------------------x-----14---14-14-14---14-14-14---14-14-14-|
|--------------------------------x--14-14-x-14-14-14-x-14-14-14-x-14-14-14-|
|-x-x-11-x-x-11-x-x-11-x-x-x-9-x-10-11----x----------x----------x----------|
|--------------------------------------------------------------------------|
|--------------------------------------------------------------------------|
|--------------------------------------------------------------------------|

  ////MAIN RIFF\\\\

|---------------------------------|    |------------------------------|
|---------------------------------|    |------------------------------|
|---------------------------------|    |------------------------------|
|---------------------------------| X3 |------------------------------|
|-4-4-4-4-4-4-4-4-4-4-4-4-4-4-4-4-|    |-4-4-4-4-4-4-4-4-4-4-7--6--5--|
|-2-2-2-2-2-2-2-2-2-2-2-2-2-2-2-2-|    |-2-2-2-2-2-2-2-2-2-2-5--4--3--|
  . . . . . . . . . . . . . . . .        . . . . . . . . . . .  .  .

  ////VERSE\\\\

|----------------------------------------------------------------|
|----------------------------------------------------------------|
|----------------------------------------------------------------|
|-------------------------------------------------------4--5-----| X4
|-4-4-4-4-4-4-4-4-4-4-4-4-4-4-4-4--4-4-4-4-4-4-4-4-4-4--2--3--2--|
|-2-2-2-2-2-2-2-2-2-2-2-2-2-2-2-2--2-2-2-2-2-2-2-2-2-2--------0--|
  . . . . . . . . . . . . . . . .  . . . . . . . . . .  .  .  .

  ////CHORUS\\\\

|-------------------------------------------------------------------------|
|-------------------------------------------------------------------------|
|-------------------------------------------------------------------------|
|-4-4-4--4-4-4-4-4--4-4-4-4-4--4-4-4-4-4--4-4-4-4-4--4-4-4-4-4--4-4-4-4-4-|
|-2-2-2--2-2-2-2-2--2-2-2-2-2--2-2-2-2-2--2-2-2-2-2--2-2-2-2-2--2-2-2-2-2-|
|-------------------------------------------------------------------------|

|------------------------------|
|------------------------------|
|------------------------------|
|-4-4-4-4-4-4-4-4-4-4----------|
|-2-2-2-2-2-2-2-2-2-2----------|
|------------------------------|

|-----------------------------------------------------------------|
|-----------------------------------------------------------------|
|-----------------------------------------------------------------|
|-----------------------------------------------------------------|
|-4--4-4-4-4-4-4-4-4-4-4-4-4-4-4--4-4-4-4-4-4-4-4-4-4-4-4-4-4-4-4-|
|-2--2-2-2-2-2-2-2-2-2-2-2-2-2-2--2-2-2-2-2-2-2-2-2-2-2-2-2-2-2-2-|
  .  . . . . . . . . . . . . . .  . . . . . . . . . . . . . . . .

|---------------------------------------------|
|---------------------------------------------|
|---------------------------------------------|
|-6-6-6--6-6-6-6-6--6-6-6-6-6--6-6-6-6-6--6-6-|
|-4-4-4--4-4-4-4-4--4-4-4-4-4--4-4-4-4-4--4-4-|
|---------------------------------------------|

|-------------------------------------------------------------------------|
|-------------------------------------------------------------------------|
|-------------------------------------------------------------------------|
|-6-6---6---6-6--6-6--6--6-6--6-6--6--6-6--6--6--6--6---------------------|
|-4-4---4---4-4--4-4--4--4-4--4-4--4--4-4--4--4--4--4---4-----------------|
|-------------------------------------------------------2-//-12-----------|

  ////INTERLUDE\\\\
                                      W/WAH
|--------------------------------------------------------------|
|--------------------------------------------------------------|
|-----------------------------------11-x-x-11p9-x-11p9-x-11p9--|
|---x-x---x-x-x-x-x---x-x-----x-x-x----------------------------|
|-9-x-x-9-x-x-x-x-x-9-x-x-9-9-x-x-x----------------------------|
|--------------------------------------------------------------|

|---------14---------------14---------14-14---14-14-----------x--16b-(18)-|
|-------x-14-x-14-x-x-x-14----14----x-14-14-x----14-x-14p10---x-----------|
|-11h14-x----x-14-x-x-x-------14----x-------x-----------------------------|
|-------------------------------------------------------------------------|
|-------------------------------------------------------------------------|
|-------------------------------------------------------------------------|

  ////SOLO\\\\
                                      W/WAH
|------------------------------------------------------------------------|
|------------------------------------------------------------------------|
|------------------------------------------------------------------------|
|-4h6p4h6p4h6p4h6p4h6p4h6p4h6p4h6p4h6p4h6p4-x-6p4h6p4h6p4h6p4h6p4h6p4-4b-|
|------------------------------------------------------------------------|
|------------------------------------------------------------------------|

|------------------------------------------------------------------|
|------------------------------------------------------------------|
|-t15-p8-t15-p8p6-h4h6--t13-p8-t14-p8p6-h4h6--t11-p8-t12-p8p6-h4h6-|
|------------------------------------------------------------------|
|------------------------------------------------------------------|
|------------------------------------------------------------------|

|---9b--(11)-//-12b-(14)----(12)--------|
|---------------------------------------|
|---------------------------------------|
|---------------------------------------|
|---------------------------------------|
|---------------------------------------|

  ////INTERLUDE\\\\

|-------------------------------------------------------------|
|-------------------------------------------------------------|
|--------------------------------------7/8---6----6/7v--------|
|--------------------------------------5/6---5----5/6v--------|
|-------------------------------------------------------------|
|-9-9-9-9-9-9-9-9-9-9-9-9-9-9-9-9-9-9-------------------------|
  . . . . . . . . . . . . . . . . . .

|-------------------------------------------------------------|
|-------------------------------------------------------------|
|--------------------------------------7/8---6----6/7v--------|
|--------------------------------------5/6---5----5/6v--------|
|-------------------------------------------------------------|
|-7h9-9-9-9-9-9-9-9-9-9-9-9-9-9-9-9-9-------------------------|
      . . . . . . . . . . . . . . . .

  ////SOLO\\\\
                                    W/WAH
|----16-----16-----16-----16-----16-----16-----16-----16-----16--|
|-19(21)-19(21)-19(21)-19(21)-19(21)-19(21)-19(21)-19(21)-19(21)-|
|----------------------------------------------------------------|
|----------------------------------------------------------------|
|----------------------------------------------------------------|
|----------------------------------------------------------------|

|-21b---(23)----(23)----(23)-------23v-----23v--23--(24)-----(21)---|
|-------------------------------19(23)--19(23)----------------------|
|-------------------------------------------------------------------|
|-------------------------------------------------------------------|
|-------------------------------------------------------------------|
|-------------------------------------------------------------------|

  ////INTERLUDE\\\\

|-------------------------------------------------------------|
|-------------------------------------------------------------|
|--------------------------------------7/8---6----6/7v--------|
|--------------------------------------5/6---5----5/6v--------|
|-------------------------------------------------------------|
|-9-9-9-9-9-9-9-9-9-9-9-9-9-9-9-9-9-9-------------------------|
  . . . . . . . . . . . . . . . . . .

|--------------x---------------x---------------x--------------------|
|----------------x---------------x---------------x------------------|
|------------------x---------------x---------------x----------------|
|--------------------x---------------x---------------x--------------|
|-8---------------------7---------------6---------------5-----------|
|-6---------------------5---------------4---------------3-----------|

  ////FINAL CHORUS\\\\

|-----------------------------------------------------------------------|
|-7*--6*--5*--4*--------------------------------------------------------|
|-----------------7*--6*--5*--4*----------------------------------------|
|----------------------------------4*--3*-------------------------------|
|------------------------------------------2*--1*-----------------------|
|-----------------------------------------------------------------------|

 * - PINCHED HARMONIC

  ////OUTRO\\\\

|-----------------------------------------------|
|-----------------------------------------------|
|-----------------------------------------------|
|-----------------------------------------------| X4
|-4--4--2--4----2----3---4--4--2--4----2----3---|
|-2--2--0--2----0----1---2--2--0--2----0----1---|
                                                     
|--------------------------|
|--------------------------|
|--------------------------|
|--------------------------|
|-4--4--2--4---------------|
|-2--2--0--2---------------|
        .  .
Tap to rate this tab
# A B C D E F G H I J K L M N O P Q R S T U V W X Y Z