Song name
# A B C D E F G H I J K L M N O P Q R S T U V W X Y Z

Rebel Meets Rebel - Cowboys Do More Dope tab

Rebel Meets Rebel - Cowboys Do More Dope

Intro
e--------------------------|
B--------------------------|
G--------------------------|
D-2-2-2-2-2-2-2-3----------| Only Played Once
A-2-2-2-2-2-2-2-3----------|
E-0-0-0-0-0-0-0-3----------|

e------------------------------------------------------|
B------------------------------------------------------|
G------------------------------------------------------|
D----------------------------------2-4h5p4-2-4-4-2---2-|
A---7---5---4---2-------------2--4-----------------4---|
E-0---0---0---0---3-2p0---3--4-------------------------|

e-----------------------------------|
B-----------------------------------|
G-----------------------------------|
D---------------2-4h5p4-2-4-4-2---2-| X2
A----------2--4-----------------4---|
E-0---3--4--------------------------|

e----------------------|
B----------------------| Only Played Once When Its The Verse Riff
G----------------------|
D---------------2b-----| When You Bend The Note Hold It There For A Couple
A----------2--4--------| Of Secs
E-0---3--4-------------|

Sorry Its Only The Intro

Enjoy!
Tap to rate this tab
# A B C D E F G H I J K L M N O P Q R S T U V W X Y Z