Rebel Son - Bury Me In Southern Ground tab

Bury Me in Southern Ground- Rebel Son

e|---------------------------------------------------------------------|
B|---------------------------------------------------------------------|
G|---------------------------------------------------------------------|
D|--2---2-------2----2-------2---------------0-------------------------|
A|----h2---------h2------------h2--------------2po---------------------|
E|-0--------3ho0---------3ho--------0---2--3--------3^-----------------|



e|---------------------------------------------------------------------|
B|---------------------------------------------------------------------|
G|--------------------------1^-----------------------------------------|
D|--2---2-------2----2----------2--0--2--0-----------------------------|
A|-----h2---------h2-----------------1---2-----------------------------|
E|-0--------3ho0------------------------------0--3^-0------------------|


Em                         	G
I was born in Dixie land Unreconstructed till the end
D                      			A	Em
In Carolina I was raised by my granddaddy in my daddyís ways
Em                         				G
They both thought me right from wrong How to fight and how to get along
D                      			                   A			Em
But my own life now is almost gone in southern ground I belong.
Em                         		   G
My final hour is drawing near so friend come sit by me right here 
D                      			                   A			Em
Letís laugh and talk about our lives and the good ol days before I die.
Em                         	G
Please give your word this vow you keep when I return to earth to sleep. 
D                      			A			Em
Let me dream forever under southern land with a Dixie flag tied in my hand.

Chorus
G                                                     D
When, when my time has come, before they lay me down to rest
G                                           Em                                              C
Friends, in my time of darkness, please grant me just this one last request
G              Em                               C       G    D
Dixie land is where I wanna make my final stand,
 G                          D               Em                  c
 I donít care if Iím in a box or not when they lay me down, 
G                                     B7
Just bury me in southern ground.

One last look at the country side before I close my weary eyes

Southern air for my last breath here comes my sweet angel of death

Sing Dixie while they lower me so I hear it for eternity

I can feel the reapers touch ashes to ashes dust to dust

Chorus
When, when my time has come, before they lay me down to rest

Friends, in my time of darkness, please grant me just this one last request

ĎíOh I wish I was in the land of cottoníí

Dixie land is where I wanna make my final stand,

 I donít care if Iím in a box or not when they lay me down, 

Just bury me in southern ground.
Tap to rate this tab
 
# A B C D E F G H I J K L M N O P Q R S T U V W X Y Z