Song name
# A B C D E F G H I J K L M N O P Q R S T U V W X Y Z

Rebel Son - Redneck Piece Of White Trash tab

     INTRO
e-------------------------------|
b-------------------------------|
g-------------------------------|
d-------------------------------|
a-----------------------------3-|b
E---------------------0-1-2-4---|


A (hammer on 3rd fret of the A string twice listen to the song youll get it)
G
D


e-------------------------------|
b-------------------------------|
g-------------------------------|
d-------------------------------|
a-----------------------------3-|b
E-----------------------0-2-4---|
A (hammer on again)
G
D




A
I like shooting pool, I like throwing darts,

G

I like going to the junkyard and looking for parts,

D

I like shooting my guns in the dark,

A

I like to hang out in the trailer park,

I've got used tires for sale in good shape,

I've got every Dukes of Hazzard episode on tape,

Who are you to tell me I aint got no class,

I'm proud to be a redneck piece of white trash.



D

I like to dip and I like to spit,

A

I like talking on the phone when I'm taking a shit,

E

I'm proud to be a redneck piece of white trash,

A

If you dont like that pucker up mother fucker you can kiss my ass.



Well I like my out of date hair do,

I like picking my nose and getting tattoos,

I like drinking beer and working on my car,

I like to drink beer and piss in my yard,

I like to burp and I like to fart,

I like picking up girls when I go to Walmart,

I like adjusting my nuts and scratching my ass,

I'm proud to be a redneck piece of white trash.

I like to dip and I like to spit

I like talkin on the phone while im takin a shit

I'm proud to be a redneck piece of white trash,

If you dont like that pucker up mother fucker you can kiss my ass.

A (once)
Last night I went to bed with a buzz,
G (once)
I dreamed I was drinking I woke up and I was,
D (once)
I'll be a drunk redneck until the day I'm dead,
A X9 or so
I drink beer with my breakfast and before I go to bed,

I like to fish and hunt when I'm drunk,

I like to fuck in the back of my truck,

You can call me rude and crude and crass,

But I'm proud to be a redneck piece of white trash,

I like to dip and I like to spit...

I like talkin on the phone while im takin a shit

I'm proud to be a redneck piece of white trash,

If you dont like that pucker up mother fucker you can kiss my ass.

e-------------------------------|
b-------------------------------|
g-------------------------------|
d-------------------------------|
a-----------------------------3-|b
E-----------------------0-2-4---|
A (hammer on again)
G
D
A (hammer on again)
X2

A                        A
Pucker up mother fucker,Pucker up mother fucker,
A                        A
Pucker up mother fucker,You can kiss my ass.


My first tab so go easy any questions ty989hudson@hotmail.com
Tap to rate this tab
 
# A B C D E F G H I J K L M N O P Q R S T U V W X Y Z