Song name
# A B C D E F G H I J K L M N O P Q R S T U V W X Y Z

Rebel Son - Bury Me In Southern Ground tab

-------------Bury Me in Southern Ground (ver 2) - Rebel Son----------------
Tabbed by:hvymtlrednck
Email:

Tuning:EADGBe

e|-------------------------------------------------------------------------|
B|-------------------------------------------------------------------------|
G|-------------------------------------------------------------------------|
D|---2p0-----0h2------2p0------0h2-------2p0-------------------------------|
A|-------0h2---------------0h2---------------0h2------2-5-2p0--------------|
E|-0-------------3p0----------------3p0----------0-2-3--------3p0----------|

e|-------------------------------------------------------------------------|
B|-------------------------------------------------------------------------|
G|-------------------------------------------------------------------------|
D|---2p0-----0h2-----2p0-----0h2-5b-2-0-2-0--------------------------------|
A|-------0h2-------------0h2----------------2-1-0------2-------------------|
E|-0-------------3p0------------------------------0-3b-0-------------------|

e|-------------------------------------------------------------------------|
B|-------------------------------------------------------------------------|
G|-------------------------------------------------------------------------|
D|---2p0-----0h2------2p0------0h2-------2p0-------------------------------|
A|-------0h2---------------0h2---------------0h2------2-5-2p0--------------|
E|-0-------------3p0----------------3p0----------0-2-3--------3p0----------|

e|-------------------------------------------------------------------------|
B|-------------------------------------------------------------------------|
G|-------------------------------------------------------------------------|
D|---2p0-----0h2-----2p0-----0h2-5b-2-0-2-0--------------------------------|
A|-------0h2-------------0h2----------------2-1-0------2-------------------|
E|-0-------------3p0------------------------------0-3b-0-------------------|

 Em                         	G
I was born in Dixie land Unreconstructed till the end
D                      			A	
In Carolina I was raised by my grandaddy and my daddys ways

e|-------------------------------------------------------------------------|
B|-------------------------------------------------------------------------|
G|-------------------------------------------------------------------------|
D|---2p0-----0h2------2p0------0h2-----------------------------------------|
A|-------0h2---------------0h2---------------------------------------------|
E|-0-------------3p0-------------------------------------------------------|

Em                         		     G
They both thought me right from wrong How to fight and how to get along
D                      		      A		
But my own life now is almost gone in southern ground I belong.

e|-------------------------------------------------------------------------|
B|-------------------------------------------------------------------------|
G|-------------------------------------------------------------------------|
D|---2p0-----0h2-----2p0-----0h2-5b-2-0-2-0--------------------------------|
A|-------0h2-------------0h2----------------2-1-0------2-------------------|
E|-0-------------3p0------------------------------0-3b-0-------------------|


Em                         		   G
My final hour is drawing near so friend come sit by me right here 
D                        		   A	
Lets laugh and talk about our lives and the good ol days before I die.
e|-------------------------------------------------------------------------|
B|-------------------------------------------------------------------------|
G|-------------------------------------------------------------------------|
D|---2p0-----0h2------2p0------0h2-----------------------------------------|
A|-------0h2---------------0h2---------------------------------------------|
E|-0-------------3p0-------------------------------------------------------|

Em                         	         G
Please give your word this vow you keep when I return to earth to sleep. 
D                        		         A		
Let me dream forever under southern land with a Dixie flag tied in my hand.

e|-------------------------------------------------------------------------|
B|-------------------------------------------------------------------------|
G|-------------------------------------------------------------------------|
D|---2p0-----0h2-----2p0-----0h2-5b-2-0-2-0--------------------------------|
A|-------0h2-------------0h2----------------2-1-0------2-------------------|
E|-0-------------3p0------------------------------0-3b-0-------------------|

Chorus
G                   D           Em                       C
Friend, when my time has come, before they lay me down to rest
G                    D                 Em                         C        
Friend, in my time of darkness, please grant me just this one last request
G     Em                     C          G    D
Dixie land is where I wanna make my final stand,
G                          D               Em           C
I dont care if Im in a box or not when they lay me down, 
G         D
Just bury me in southern ground.
e|-------------------------------------------------------------------------|
B|-------------------------------------------------------------------------|
G|-------------------------------------------------------------------------|
D|---2p0-----0h2------2p0------0h2-------2p0-------------------------------|
A|-------0h2---------------0h2---------------0h2------2-5-2p0--------------|
E|-0-------------3p0----------------3p0----------0-2-3--------3p0----------|

e|-------------------------------------------------------------------------|
B|-------------------------------------------------------------------------|
G|-------------------------------------------------------------------------|
D|---2p0-----0h2-----2p0-----0h2-5b-2-0-2-0--------------------------------|
A|-------0h2-------------0h2----------------2-1-0------2-------------------|
E|-0-------------3p0------------------------------0-3b-0-------------------|

Em                         		   G
One last look at the country side before I close my weary eyes
D                                     A
Southern air for my last breath here comes my sweet angel of death
e|-------------------------------------------------------------------------|
B|-------------------------------------------------------------------------|
G|-------------------------------------------------------------------------|
D|---2p0-----0h2------2p0------0h2-----------------------------------------|
A|-------0h2---------------0h2---------------------------------------------|
E|-0-------------3p0-------------------------------------------------------|

Em                                    G
Sing Dixie while they lower me so Ill hear it for eternity
D                            A
I can feel the reapers touch ashes to ashes dust to dust
e|-------------------------------------------------------------------------|
B|-------------------------------------------------------------------------|
G|-------------------------------------------------------------------------|
D|---2p0-----0h2-----2p0-----0h2-5b-2-0-2-0--------------------------------|
A|-------0h2-------------0h2----------------2-1-0------2-------------------|
E|-0-------------3p0------------------------------0-3b-0-------------------|
                        		   
Chorus
G                        D      Em                        C
Freind, when my time has come, before they lay me down to rest
G                         D            Em                            C
Friend, in my time of darkness, please grant me just this one last request
G     Em                     C          G    D
Dixie land is where I wanna make my final stand,
G                        D               Em           C
I dont care if Im in a box or not when they lay me down, 
G         D
Just bury me in southern ground.

e|-------------------------------------------------------------------------|
B|-------------------------------------------------------------------------|
G|-------------------------------------------------------------------------|
D|---2p0-----0h2------2p0------0h2-------2p0-------------------------------|
A|-------0h2---------------0h2---------------0h2------2-5-2p0--------------|
E|-0-------------3p0----------------3p0----------0-2-3--------3p0----------|

e|-------------------------------------------------------------------------|
B|-------------------------------------------------------------------------|
G|-------------------------------------------------------------------------|
D|---2p0-----0h2-----2p0-----0h2-5b-2-0-2-0--------------------------------|
A|-------0h2-------------0h2----------------2-1-0------2-------------------|
E|-0-------------3p0------------------------------0-3b-0-------------------|
	
  "Oh I wish I was in the land of cotton"
e|-------------------------------------------------------------------------|
B|-3-0---------0-1-3-3-3-0-------------------------------------------------|
G|-----0-0-0-2-------------------------------------------------------------|
D|-------------------------------------------------------------------------|
A|-------------------------------------------------------------------------|
E|-------------------------------------------------------------------------|

G     Em                     C          G    D
Dixie land is where I wanna make my final stand,
G                        D               Em           C
I dont care if Im in a box or not when they lay me down, 
G         D
Just bury me in southern ground.

e|-------------------------------------------------------------------------|
B|-------------------------------------------------------------------------|
G|-------------------------------------------------------------------------|
D|---2p0-----0h2------2p0------0h2-------2p0-------------------------------|
A|-------0h2---------------0h2---------------0h2------2-5-2p0--------------|
E|-0-------------3p0----------------3p0----------0-2-3--------3p0----------|

e|-------------------------------------------------------------------------|
B|-------------------------------------------------------------------------|
G|-------------------------------------------------------------------------|
D|---2p0-----0h2-----2p0-----0h2-5b-2-0-2-0--------------------------------|
A|-------0h2-------------0h2----------------2-1-0------2-------------------|
E|-0-------------3p0------------------------------0-3b-0-------------------|

e|-------------------------------------------------------------------------|
B|-------------------------------------------------------------------------|
G|-------------------------------------------------------------------------|
D|---2p0-----0h2------2p0------0h2-------2p0-------------------------------|
A|-------0h2---------------0h2---------------0h2------2-5-2p0--------------|
E|-0-------------3p0----------------3p0----------0-2-3--------3p0----------|

e|-------------------------------------------------------------------------|
B|-------------------------------------------------------------------------|
G|-------------------------------------------------------------------------|
D|---2p0-----0h2-----2p0-----0h2-5b-2-0-2-0--------------------------------|
A|-------0h2-------------0h2----------------2-1-0------2-------------------|
E|-0-------------3p0------------------------------0-3b-0-------------------|

************************************

| /   slide up
| \   slide down
| h   hammer-on
| p   pull-off
| ~   vibrato
| +   harmonic
| x   Mute note
| b   Bend
| pb  Pre-bend
| br  Bend release
| pbr Pre-bend release
| brb Bend release bend

************************************
Tap to rate this tab
# A B C D E F G H I J K L M N O P Q R S T U V W X Y Z