Song name
# A B C D E F G H I J K L M N O P Q R S T U V W X Y Z

Rebellion - The Sons Of The Dragon Slayer tab

-------------------------------------------------------------------------------
              The Sons Of The Dragon Slayer - REBELLION
-------------------------------------------------------------------------------
REBELLION
The Sons Of The Dragon Slayer (Blood Eagle)
History Of The Vikings Part I: The Sagas Of Iceland (2005)
Tabbed by: malpka

Tuning: DADGBe

INTRO:
[FIG: 1a]
e|---------------------------------|---------------------------------|
B|---------------------------------|---------------------------------|
G|---------------------------------|---------------------------------|
D|-0-0-------3-----3-----3-----6-5-|-0-0-------3-----3-----3-----6-5-|
A|-0-0-------3-----3-----3-----6-5-|-0-0-------3-----3-----3-----6-5-|
D|-0-0-0-0-0-3-0-0-3-0-0-3-0-0-6-5-|-0-0-0-0-0-3-0-0-3-0-0-3-0-0-6-5-|
 |                                 |                                 |
e|---------------------------------|---------------------------------|
B|---------------------------------|---------------------------------|
G|---------------------------------|---------------------------------|
D|-0-0-----------------------------|-0-0-----------------------------|
A|-0-0-----------------------------|-0-0-----------------------------|
D|-0-0-----------------------------|-0-0-----------------------------|

e|---------------------------------|---------------------------------|
B|---------------------------------|---------------------------------|
G|---------------------------------|---------------------------------|
D|-0-0-------3-----3-----3-----6-5-|-0-0-------3-----3-----3-----6-5-|
A|-0-0-------3-----3-----3-----6-5-|-0-0-------3-----3-----3-----6-5-|
D|-0-0-0-0-0-3-0-0-3-0-0-3-0-0-6-5-|-0-0-0-0-0-3-0-0-3-0-0-3-0-0-6-5-|
 |                                 |                                 |
e|---------------------------------|---------------------------------|
B|---------------------------------|---------------------------------|
G|---------------------------------|---------------------------------|
D|-0-0-----------------------------|-0-0-----------------------------|
A|-0-0-----------------------------|-0-0-----------------------------|
D|-0-0-----------------------------|-0-0-----------------------------|


[FIG: 1b]
e|---------------------------------|---------------------------------|
B|---------------------------------|---------------------------------|
G|---------------------------------|---------------------------------|
D|---1-------3-----3-----3-----6-5-|---1-------3-----3-----3-----6-5-|
A|-0-1-------3-----3-----3-----6-5-|-0-1-------3-----3-----3-----6-5-|
D|-0---0-0-0---0-0---0-0---0-0-----|-0---0-0-0---0-0---0-0---0-0-----|
 |                                 |                                 |
e|---------------------------------|---------------------------------|
B|---------------------------------|---------------------------------|
G|---------------------------------|---------------------------------|
D|---1-----------------------------|---1-----------------------------|
A|-0-1-------3-----3-----3-----6-5-|-0-1-------3-----3-----3-----6-5-|
D|-0-1-0-0-0-3-0-0-3-0-0-3-0-0-6-5-|-0-1-0-0-0-3-0-0-3-0-0-3-0-0-6-5-|

e|---------------------------------|---------------------------------|
B|---------------------------------|---------------------------------|
G|---------------------------------|---------------------------------|
D|---1-------3-----3-----3-----6-5-|---1-------3-----3-----3-----6-5-|
A|-0-1-------3-----3-----3-----6-5-|-0-1-------3-----3-----3-----6-5-|
D|-0---0-0-0---0-0---0-0---0-0-----|-0---0-0-0---0-0---0-0---0-0-----|
 |                                 |                                 |
e|---------------------------------|---------------------------------|
B|---------------------------------|---------------------------------|
G|---------------------------------|---------------------------------|
D|---1-----------------------------|---1-----------------------------|
A|-0-1-------3-----3-----3-----6-5-|-0-1-------3-----3-----3-----6-5-|
D|-0-1-0-0-0-3-0-0-3-0-0-3-0-0-6-5-|-0-1-0-0-0-3-0-0-3-0-0-3-0-0-6-5-|


VERSE:
[FIG: 2]
      Ragnar the Dragon Slayer               King of sea and land
e|-------------------------------------|-------------------------------------|
B|-------------------------------------|-------------------------------------|
G|-------------------------------------|-------------------------------------|
D|-------------------------------------|-------------------------------------|
A|-------------------x-----------------|-------------------x-----------------|
D|-00000000-00000000-x0000000-00000000-|-00000000-00000000-x0000000-00000000-|


   When people spot your sail they fear the Sword that's in your hand
e|-------------------------------------|-------------------------------------|
B|-------------------------------------|-------------------------------------|
G|-------------------------------------|-------------------------------------|
D|--1----------------------------------|-------------------------------------|
A|--1----------------------------------|-------------------x-----------------|
D|--1----------------------------------|-00000000-00000000-x0000000-00000000-|

        I was born your son and with my   Brothers I sailed out
e|-------------------------------------|-------------------------------------|
B|-------------------------------------|-------------------------------------|
G|-------------------------------------|-------------------------------------|
D|-------------------------------------|-------------------------------------|
A|-------------------x-----------------|-------------------x-----------------|
D|-00000000-00000000-x0000000-00000000-|-00000000-00000000-x0000000-00000000-|


   To feed the ravens, steal the gold where  Battle rages loud
e|-------------------------------------|-------------------------------------|
B|-------------------------------------|-------------------------------------|
G|-------------------------------------|-------------------------------------|
D|--1----------------------------------|-------------------------------------|
A|--1----------------------------------|-------------------x-----------------|
D|--1----------------------------------|-00000000-00000000-x0000000-00000000-|


VERSE:
[FIG: 2]
You had to go to England with the few men you could gain
And outnumbered ten to one, your heroes they were slain
You searched for death in battle but the failing light of day
Saw you as a prisoner in chains They dragged you away



PRE-CHORUS:
[FIG: 3]
  In a pit of snakes,      By vermin's breath
e|------------------------|------------------------|
B|------------------------|------------------------|
G|-----10-----------------|-----8------------------|
D|-7-5-10-----------------|-7-5-8------------------|
A|-5-3-8------------------|-5-3-6------------------|
D|------------------------|------------------------|
 |                        |                        |
e|------------------------|------------------------|
B|------------------------|------------------------|
G|------------------------|------------------------|
D|---5--------------------|---5--------------------|
A|-0-7-3------------------|-0-7-1----666666-666666-|
D|-0---3----333333-333333-|-0---1------------------|

  Die, you lost your life,  No honor in such a death
e|------------------------|------------------------|
B|------------------------|------------------------|
G|------------------------|------------------------|
D|-7-5-10-----------------|-7-5-7------------------|
A|-5-3-8------------------|-5-3-5------------------|
D|------------------------|------------------------|
 |                        |                        |
e|------------------------|------------------------|
B|------------------------|------------------------|
G|------------------------|------------------------|
D|---5--------------------|---5-0------------------|
A|-0-7-3------------------|-0-7-0------------------|
D|-0---3----333333-333333-|-0---0----000000-000000-|


CHORUS:
[FIG: 4]
  The Sons of the Dragon Slayer  All for one we stand
e|------------------------|------------------------|
B|------------------------|------------------------|
G|------------------------|---(5)------------------|
D|--0---------------------|--5(5)------------------|
A|--0---------------------|--7(3)------------------|
D|--0---------------------|------------------------|
 |                        |                        |
e|------------------------|------------------------|
B|------------------------|------------------------|
G|--7------------------7\-|--5------------------5\-|
D|------------------------|------------------------|
A|--5------------------5\-|--3------------------3\-|
D|------------------------|------------------------|


  We'll cut the Blood Eagle, And your life will soak the land
e|------------------------|------------------------|
B|------------------------|------------------------|
G|---(2)------------------|---(3)------------------|
D|--2(2)------------------|--3(3)------------------|
A|--3(0)------------------|--5(1)-----------3--2---|
D|------------------------|-----------------3--2---|
 |                        |                        |
e|------------------------|------------------------|
B|------------------------|------------------------|
G|--2------------------2/-|--3-------------/10-9-7-|
D|------------------------|------------------------|
A|--0------------------0/-|--1-------------/8--7-5-|
D|------------------------|------------------------|


  The Sons of the Dragon Slayer,  King Ella you'll repent
e|------------------------|------------------------|
B|------------------------|------------------------|
G|------------------------|---(5)------------------|
D|--0---------------------|--5(5)------------------|
A|--0---------------------|--7(3)------------------|
D|--0---------------------|------------------------|
 |                        |                        |
e|------------------------|------------------------|
B|------------------------|------------------------|
G|--7------------------7\-|--5------------------5\-|
D|------------------------|------------------------|
A|--5------------------5\-|--3------------------3\-|
D|------------------------|------------------------|


  I'll cut the Blood Eagle, And your life shall soak the land
e|------------------------|------------------------|
B|------------------------|------------------------|
G|---(2)------------------|---(3)------------------|
D|--2(2)------------------|--3(3)------------------|
A|--3(0)------------------|--5(1)-----------3--2---|
D|------------------------|-----------------3--2---|
 |                        |                        |
e|------------------------|------------------------|
B|------------------------|------------------------|
G|--2------------------2/-|--3-------------/10-9-7-|
D|------------------------|------------------------|
A|--0------------------0/-|--1-------------/8--7-5-|
D|------------------------|------------------------|

BRIDGE:
[FIG: 1]


VERSE:
[FIG: 2]
Ivar my brother, King of London let me know
He bribed the English nobles, so King Ella stands alone
Now's the time to gather men To play the bloody game
Take their lives and spill their blood To wash away the shame

Long boats touch the sand, Northern warriors steel in hand
The enemy is weak, No way to defend
Running through the lines, Falling on a fearing prey
Ragnar's sons deal hard, And in the end they win the day


PRE-CHORUS:
[FIG: 3]
In a lake of blood, King Ella's death
Die hard die slowly die, The Blood Eagle drinks your breath


CHORUS:
[FIG: 4]
The Sons of the Dragon Slayer, All for one we stand
We'll cut the Blood Eagle, And your life will soak the land

The Sons of the Dragon Slayer, King Ella you'll repent
I'll cut the Blood Eagle, And your life shall soak the land



SOLO:

e|--------------------------------------------     --|
B|-11-10--10-13-10-11-10---------------------- x2  --|
G|------12--------------12-12-9-9-10-10-12-12-     --|
D|--------------------------------------------     --|
A|--------------------------------------------     --|
D|--------------------------------------------     --|
 |                                                   |
e|---------------------------------------------------|
B|---------------------------------------------------|
G|---------------------------------------------------|
D|--0------------------------------------------------|
A|--0------------------------------------------------|
D|--0------------------------------------------------|

e|--------------------------------------------     --|
B|-11-10--10-13-10-11-10---------------------- x2  --|
G|------12--------------12-12-9-9-10-10-12-12-     --|
D|--------------------------------------------     --|
A|--------------------------------------------     --|
D|--------------------------------------------     --|
 |                                                   |
e|---------------------------------------------------|
B|---------------------------------------------------|
G|---------------------------------------------------|
D|--5------------------------------------------------|
A|--7------------------------------------------------|
D|---------------------------------------------------|


e|---------------------------------------------------|
B|--11-10tm-11-10tm-11-10tm-11-10tm-11-10tm-11-10tm--|
G|---------------------------------------------------|
D|---------------------------------------------------|
A|---------------------------------------------------|
D|---------------------------------------------------|
 |                                                   |
e|---------------------------------------------------|
B|---------------------------------------------------|
G|---------------------------------------------------|
D|--2------------------------------------------------|
A|--3------------------------------------------------|
D|---------------------------------------------------|


e|---------------------------------------------------|
B|-10tm-11tm-13tm-15tm-17tm-18tm-20tm-17tm-13-13-10~-|
G|---------------------------------------------------|
D|---------------------------------------------------|
A|---------------------------------------------------|
D|---------------------------------------------------|
 |                                                   |
e|---------------------------------------------------|
B|---------------------------------------------------|
G|---------------------------------------------------|
D|--3------------------------------------------------|
A|--5----------------------------------------3----2--|
D|-------------------------------------------3----2--|


e|---------------------------------------------------|
B|-13------------15--16--17--18--17--15--17--15--13--|
G|-15b-----------------------------------------------|
D|---------------------------------------------------|
A|---------------------------------------------------|
D|---------------------------------------------------|
 |                                                   |
e|---------------------------------------------------|
B|---------------------------------------------------|
G|---------------------------------------------------|
D|--0------------------------------------------------|
A|--0------------------------------------------------|
D|--0------------------------------------------------|

e|---------------------------------------------------|
B|-13--10--11--10------------------------------------|
G|-----------------12--10--9--10--9--10--------------|
D|---------------------------------------10----------|
A|-------------------------------------------12------|
D|---------------------------------------------------|
 |                                                   |
e|---------------------------------------------------|
B|---------------------------------------------------|
G|---------------------------------------------------|
D|--5------------------------------------------------|
A|--7------------------------------------------------|
D|---------------------------------------------------|


e|---------------------------------------------------|
B|----------10-13-11-10----11-10-------8-10-8--------|
G|--------9-------------12-------12-10--------10-9---|
D|-----10--------------------------------------------|
A|--12-----------------------------------------------|
D|---------------------------------------------------|
 |                                                   |
e|---------------------------------------------------|
B|---------------------------------------------------|
G|---------------------------------------------------|
D|--2------------------------------------------------|
A|--3------------------------------------------------|
D|---------------------------------------------------|


e|---------------------------------------------------|
B|--11-------10--------8-------6-------5-------------|
G|----12tm-----10tm-----9tm-----7tm-----5tm-----7~~--|
D|---------------------------------------------------|
A|---------------------------------------------------|
D|---------------------------------------------------|
 |                                                   |
e|---------------------------------------------------|
B|---------------------------------------------------|
G|---------------------------------------------------|
D|--3------------------------------------------------|
A|--5----------------------------------------3----2--|
D|-------------------------------------------3----2--|


CHORUS:
[FIG: 4]
  The Sons of the Dragon Slayer  All for one we stand
e|------------------------|------------------------|
B|------------------------|------------------------|
G|------------------------|------------------------|
D|------------------------|------------------------|
A|-----8--10--12--10-8----|--12----10----8----7----|
D|--0---------------------|------------------------|
 |                        |                        |
e|------------------------|------------------------|
B|------------------------|------------------------|
G|------------------------|---(5)------------------|
D|--0---------------------|--5(5)------------------|
A|--0---------------------|--7(3)------------------|
D|--0---------------------|------------------------|
 |                        |                        |
e|------------------------|------------------------|
B|------------------------|------------------------|
G|--7------------------7\-|--5------------------5\-|
D|------------------------|------------------------|
A|--5------------------5\-|--3------------------3\-|
D|------------------------|------------------------|

  We'll cut the Blood Eagle, And your life will soak the land
e|------------------------|------------------------|
B|------------------------|------------------------|
G|------------------------|------------------------|
D|------------------------|------------------------|
A|----8--10--12--10--8--7-|--12---10---8---12---10-|
D|--10--------------------|------------------------|
 |                        |                        |
e|------------------------|------------------------|
B|------------------------|------------------------|
G|---(2)------------------|---(3)------------------|
D|--2(2)------------------|--3(3)------------------|
A|--3(0)------------------|--5(1)-----------3--2---|
D|------------------------|-----------------3--2---|
 |                        |                        |
e|------------------------|------------------------|
B|------------------------|------------------------|
G|--2------------------2/-|--3-------------/10-9-7-|
D|------------------------|------------------------|
A|--0------------------0/-|--1-------------/8--7-5-|
D|------------------------|------------------------|


  The Sons of the Dragon Slayer,  King Ella you'll repent
e|------------------------|------------------------|
B|------------------------|------------------------|
G|------------------------|------------------------|
D|------------------------|------------------------|
A|-----8--10--12--10-8----|--12----10----8----7----|
D|--0---------------------|------------------------|
 |                        |                        |
e|------------------------|------------------------|
B|------------------------|------------------------|
G|------------------------|---(5)------------------|
D|--0---------------------|--5(5)------------------|
A|--0---------------------|--7(3)------------------|
D|--0---------------------|------------------------|
 |                        |                        |
e|------------------------|------------------------|
B|------------------------|------------------------|
G|--7------------------7\-|--5------------------5\-|
D|------------------------|------------------------|
A|--5------------------5\-|--3------------------3\-|
D|------------------------|------------------------|

  I'll cut the Blood Eagle, And your life shall soak the land
e|------------------------|------------------------|
B|------------------------|------------------------|
G|------------------------|------------------------|
D|------------------------|------------------------|
A|----8--10--12--10--8--7-|--12---10---8---12---10-|
D|--10--------------------|------------------------|
 |                        |                        |
e|------------------------|------------------------|
B|------------------------|------------------------|
G|---(2)------------------|---(3)------------------|
D|--2(2)------------------|--3(3)------------------|
A|--3(0)------------------|--5(1)-----------3--2---|
D|------------------------|-----------------3--2---|
 |                        |                        |
e|------------------------|------------------------|
B|------------------------|------------------------|
G|--2------------------2/-|--3-------------/10-9-7-|
D|------------------------|------------------------|
A|--0------------------0/-|--1-------------/8--7-5-|
D|------------------------|------------------------|


OUTRO:
[FIG: 1b sim...]
e|---------------------------------|---------------------------------|
B|---------------------------------|---------------------------------|
G|---------------------------------|---------------------------------|
D|---1-------3-----3-----3-----6-5-|---1-------3-----3-----3-----6-5-|
A|-0-1-------3-----3-----3-----6-5-|-0-1-------3-----3-----3-----6-5-|
D|-0---0-0-0---0-0---0-0---0-0-----|-0---0-0-0---0-0---0-0---0-0-----|
 |                                 |                                 |
e|---------------------------------|---------------------------------|
B|---------------------------------|---------------------------------|
G|---------------------------------|---------------------------------|
D|---1-----------------------------|---1-----------------------------|
A|-0-1-------3-----3-----3-----6-5-|-0-1-------3-----3-----3-----6-5-|
D|-0-1-0-0-0-3-0-0-3-0-0-3-0-0-6-5-|-0-1-0-0-0-3-0-0-3-0-0-3-0-0-6-5-|

e|---------------------------------|---------------------------------|
B|---------------------------------|---------------------------------|
G|---------------------------------|---------------------------------|
D|---1-------3-----3-----3-----6-5-|---1-------3-----3-----3-----6-5-|
A|-0-1-------3-----3-----3-----6-5-|-0-1-------3-----3-----3-----6-5-|
D|-0---0-0-0---0-0---0-0---0-0-----|-0---0-0-0---0-0---0-0---0-0-----|
 |                                 |                                 |
e|---------------------------------|---------------------------------|
B|---------------------------------|---------------------------------|
G|---------------------------------|---------------------------------|
D|---1-----------------------------|---1-----------------------------|
A|-0-1-------3-----3-----3-----6-5-|-0-1-------3-----3-----3-----6-5-|
D|-0-1-0-0-0-3-0-0-3-0-0-3-0-0-6-5-|-0-1-0-0-0-3-0-0-3-0-0-3-0-0-6-5-|

e|---------------------------------|
B|---------------------------------|
G|----8\---------------------------|
D|----8\---------------------------|
A|-0--6\---------------------------|
D|-0-------------------------------|
 |                                 |
e|---------------------------------|
B|---------------------------------|
G|---------------------------------|
D|----1\---------------------------|
A|-0--1\---------------------------|
D|-0--1\---------------------------|



| /  slide up
| \  slide down
| h  hammer-on
| p  pull-off
| ~  vibrato
| +  harmonic
| x  Mute note
| tm Tremolo pick
===============================================================================

Tap to rate this tab
# A B C D E F G H I J K L M N O P Q R S T U V W X Y Z