Song name
# A B C D E F G H I J K L M N O P Q R S T U V W X Y Z

Rebellion - Blood Rains tab

-------------------------------------------------------------------------------
			   Blood Rains - REBELLION
-------------------------------------------------------------------------------
REBELLION
Blood Rains (The Saga Of King Olaf Trygvason)
History Of The Vikings Part I: The Sagas Of Iceland (2005)
Tabbed by: malpka
Tuning: standard

INTRO:
[FIG: 1]
(2x)
e|------------------------|------------------------|
B|------------------------|------------------------|
G|--9---------------------|--7---------------------|
D|--9---------------------|--7---------------------|
A|--7----7----------------|--5----7----------------|
E|-------0-------0-0-0-0--|-------0-------0-0-0-0--|


e|------------------------|------------------------|
B|------------------------|------------------------|
G|--10/ 12---10-----------|-(10)-------------------|
D|--10/ 12---10-----------|-(10)-------------------|
A|--8 / 10---8------------|-(8)--------------------|
E|------------------------|------------------------|

VERSE 1:
[FIG: 2]
  On  the  blackened  eve  of  destruction
e|------------------------|------------------------|
B|------------------------|------------------------|
G|-9-----9-----9-----9----|-9-----9-----9-----9----|
D|-9-----9-----9-----9----|-9-----9-----9-----9----|
A|-7--7--7--7--7--7--7--7-|-7--7--7--7--7--7--7--7-|
E|----0-----0-----0-----0-|----0-----0-----0-----0-|

  A  King  arises  with  the  promise  of light
e|------------------------|------------------------|
B|------------------------|------------------------|
G|-9-----9-----9-----9----|-9-----9----------------|
D|-9-----9-----9-----9----|-9-----9--------10-10~~-|
A|-7--7--7--7--7--7--7--7-|-7--7--7--7--x--7--7~~--|
E|----0-----0-----0-----0-|----0-----0--x----------|

  But  the  Jarls  who  held  him  high
e|------------------------|------------------------|
B|------------------------|------------------------|
G|-9-----9-----9-----9----|-9-----9-----9-----9----|
D|-9-----9-----9-----9----|-9-----9-----9-----9----|
A|-7--7--7--7--7--7--7--7-|-7--7--7--7--7--7--7--7-|
E|----0-----0-----0-----0-|----0-----0-----0-----0-|

  Were  soon  to  see  that  they  followed a lie
e|------------------------|------------------------|
B|------------------------|------------------------|
G|-9-----9-----9-----9----|-9-----9----------------|
D|-9-----9-----9-----9----|-9-----9--------10-10~~-|
A|-7--7--7--7--7--7--7--7-|-7--7--7--7--x--7--7~~--|
E|----0-----0-----0-----0-|----0-----0--x----------|

VERSE:
[FIG: 2]
Wise magicians and healing women
Put to the stake by royal hands
Baptised they would not be
And so in flames their life did end


PRE-CHORUS:
[FIG: 3]
    Odin,  thy    Face
e|----------------|--0-------------|
B|----------------|----------------|
G|--7----9----10--|--9-------------|
D|----------------|----------------|
A|----------------|----------------|
E|----------------|----------------|
 |                |                |
e|----------------|----------------|
B|----------------|----------------|
G|-3--------------|(3)-------------|
D|-3--------------|(3)-------------|
A|-1--------------|(1)-------------|
E|----------------|----------------|

   It fades in the blood
e|----------------|--7-------------|
B|----------------|----------------|
G|--7----9----10--|--9-------------|
D|----------------|----------------|
A|----------------|----------------|
E|----------------|----------------|
 |                |                |
e|----------------|----------------|
B|----------------|----------------|
G|----------------|----------------|
D|-2--------------|(2)-------------|
A|-2--------------|(2)-------------|
E|-0--------------|(0)-------------|

  The heathen oaks burn
e|----------------|--0-------------|
B|----------------|----------------|
G|--7----9----10--|--9-------------|
D|----------------|----------------|
A|----------------|----------------|
E|----------------|----------------|
 |                |                |
e|----------------|----------------|
B|----------------|----------------|
G|-3--------------|(7)-------------|
D|-3--------------|(7)-------------|
A|-1--------------|(5)-------------|
E|----------------|----------------|

   It's the end of a God
e|----------------|----------------|
B|----------------|----------------|
G|--7----9----10--|--9--9--9--9----|
D|----------------|----------------|
A|----------------|----------------|
E|----------------|----------------|
 |                |                |
e|----------------|----------------|
B|----------------|----------------|
G|-9--------------|-7--------------|
D|-9--------------|-7--------------|
A|-7--------------|-5--------------|
E|----------------|----------------|

CHORUS:
[FIG: 4]
   Blood rains from the    Sky
e|------------------------|------------------------|
B|------------------------|------------------------|
G|------------------------|--7---------------------|
D|--2---------------------|--7---------------------|
A|--2---------------------|--5---------------------|
E|--0---------------------|------------------------|

   Love is just a Christian lullabye
e|------------------------|------------------------|
B|------------------------|------------------------|
G|--5---------------------|-(5)--------------------|
D|--5---------------------|-(5)--------------------|
A|--3---------------------|-(3)--------------------|
E|-(3)--------------------|-(3)--------------------|

     I can't believe,  I'd rather
e|------------------------|------------------------|
B|------------------------|------------------------|
G|------------------------|--7---------------------|
D|--2---------------------|--7---------------------|
A|--2---------------------|--5---------------------|
E|--0---------------------|------------------------|

  Die
e|------------------------|------------------------|
B|------------------------|------------------------|
G|------------------------|------------------------|
D|--3-------3-------3-----|------3-------3-------3-|
A|--3----3--3----3--3-----|--3---3----3--3----3--3-|
E|--1--1111-1--1111-1--11-|--11--1--1111-1--1111-1-|


   Blood rains from the sky
e|------------------------|------------------------|
B|------------------------|------------------------|
G|------------------------|--7---------------------|
D|--2---------------------|--7---------------------|
A|--2---------------------|--5---------------------|
E|--0---------------------|------------------------|

   Preaching love while tortured victims cry
e|------------------------|------------------------|
B|------------------------|------------------------|
G|--5---------------------|-(5)--------------------|
D|--5---------------------|-(5)--------------------|
A|--3---------------------|-(3)--------------------|
E|-(3)--------------------|-(3)--------------------|

     I won't believe,  I'd rather
e|------------------------|------------------------|
B|------------------------|------------------------|
G|------------------------|--7---------------------|
D|--2---------------------|--7---------------------|
A|--2---------------------|--5---------------------|
E|--0---------------------|------------------------|

  Die
e|------------------------|------------------------|
B|------------------------|------------------------|
G|------------------------|------------------------|
D|--3-------3-------3-----|------3-------3-------3-|
A|--3----3--3----3--3-----|--3---3----3--3----3--3-|
E|--1--1111-1--1111-1--11-|--11--1--1111-1--1111-1-|


BRIDGE:
[FIG: 5]
e|--------------------|--------------------|
B|---------------0----|---------------0----|
G|---------0----------|---------0----------|
D|---2----------------|---0----------------|
A|--------------------|--------------------|
E|--------------------|--------------------|
 |                    |                    |
e|--------------------|--------------------|
B|--------------------|--------------------|
G|--------------------|--------------------|
D|---------------9----|---------------7----|
A|---7-----10---------|--5------9----------|
E|--------------------|--------------------|
 |                    |                    |
e|--------------------|--------------------|
B|--------------------|--------------------|
G|--------------------|--------------------|
D|---------------0----|--------------------|
A|---------2----------|---------0-----3----|
E|---3----------------|---2----------------|

e|--------------------|--------------------|
B|--------------------|--------------------|
G|---------------0----|---------------0----|
D|---------2----------|---------4----------|
A|--/3----------------|--/5----------------|
E|--------------------|--------------------|
 |                    |                    |
e|--------------------|--------------------|
B|--------------------|--------------------|
G|--------------------|--------------------|
D|--------------5-----|--------------7-----|
A|--3-----7-----------|--5-----9-----------|
E|--------------------|--------------------|
 |                    |                    |
e|--------------------|--------------------|
B|--------------------|--------------------|
G|--------------------|--------------------|
D|--------------------|--------------------|
A|-/7-----------------|-/5-----------------|
E|--------------------|--------------------|


VERSE:
[FIG: 2]
Bondes who would not dip in the water
At the Althing he had put them dead
A royal smile, a lie on the lips
Believe in Christ or drink burning lead

Raud a mighty Jarl on the isle
He was taken at night and tied to a stake
His house on flames, yet he would not fold his hands
Condemned to death he had to swallow a snake


PRE-CHORUS:
[FIG: 3]
Odin, thy face
It fades in the blood
The heathen oaks burn
It's the end of a God


CHORUS:
[FIG: 4]
Blood rains from the sky
Love is just a Christian lullabye
I can't believe, I'd rather die

Blood rains from the sky
Preaching love while tortured victims cry
I won't believe, I'd rather die

SOLO:

e|--------------------|--------------------|
B|--------------------|--------------------|
G|--------------------|--------------------|
D|--------------------|--------------------|
A|-7---7-7--9--10--5--|--7~~~--------------|
E|--------------------|--------------------|
 |                    |                    |
e|--------------------|--------------------|
B|--------------------|--------------------|
G|--------------------|--------------------|
D|---------------9----|---------------7----|
A|--7-----10----------|--5------9----------|
E|--------------------|--------------------|

e|--------------------|--------------------|
B|--------------------|--------------------|
G|--------------------|--------------------|
D|--------------------|--------------------|
A|-7---7-7--9--10--14-|-14--12--10--9~~~---|
E|--------------------|--------------------|
 |                    |                    |
e|--------------------|--------------------|
B|--------------------|--------------------|
G|--------------------|--------------------|
D|--------------5-----|--------------7-----|
A|--3-----7-----------|--5-----9-----------|
E|--------------------|--------------------|


e|--------------------|--------------------|
B|--------------------|--------------------|
G|--------------------|--------------------|
D|--------------------|--------------------|
A|-7---7-7--9--10--5--|--7~~~--------------|
E|--------------------|--------------------|
 |                    |                    |
e|--------------------|--------------------|
B|--------------------|--------------------|
G|--------------------|--------------------|
D|---------------9----|---------------7----|
A|--7-----10----------|--5------9----------|
E|--------------------|--------------------|

e|--------------------|--------------------|
B|--------------------|--------------------|
G|--------------------|--------------------|
D|--------------------|--------------------|
A|-7---7-7--9--10--14-|-14--12--10--9~~~---|
E|--------------------|--------------------|
 |                    |                    |
e|--------------------|--------------------|
B|--------------------|--------------------|
G|--------------------|--------------------|
D|--------------5-----|--------------7-----|
A|--3-----7-----------|--5-----9-----------|
E|--------------------|--------------------|


e|--------------------|--------------------|
B|-5-0--0-7--0-8--0-3-|--5~~~--------------|
G|--------------------|--------------------|
D|--------------------|--------------------|
A|--------------------|--------------------|
E|--------------------|--------------------|
 |                    |                    |
e|--------------------|--------------------|
B|--------------------|--------------------|
G|--------------------|--------------------|
D|---------------9----|--------------7-----|
A|--7-----10----------|--5-----9-----------|
E|--------------------|--------------------|

e|--------------------|--------------------|
B|-5-0--0-7--0-8--0-12|--12--10--8--7~~~---|
G|--------------------|--------------------|
D|--------------------|--------------------|
A|--------------------|--------------------|
E|--------------------|--------------------|
 |                    |                    |
e|--------------------|--------------------|
B|--------------------|--------------------|
G|--------------------|--------------------|
D|--------------5-----|--------------7-----|
A|--3-----7-----------|--5-----9-----------|
E|--------------------|--------------------|


e|--------------------|--------------------|
B|-5-0--0-7--0-8--0-3-|--5~~~--------------|
G|--------------------|--------------------|
D|--------------------|--------------------|
A|--------------------|--------------------|
E|--------------------|--------------------|
 |                    |                    |
e|--------------------|--------------------|
B|--------------------|--------------------|
G|--------------------|--------------------|
D|---------------9----|--------------7-----|
A|--7-----10----------|--5-----9-----------|
E|--------------------|--------------------|

e|--------------------|--------------------|
B|-5-0--0-7--0-8--0-12|--12--10--8--7+~~~--|
G|--------------------|--------------------|
D|--------------------|--------------------|
A|--------------------|--------------------|
E|--------------------|--------------------|
 |                    |                    |
e|--------------------|--------------------|
B|--------------------|--------------------|
G|--------------------|--------------------|
D|--------------5-----|--------------7-----|
A|--3-----7-----------|--5-----9-----------|
E|--------------------|--------------------|


e|--------------------|--------------------|
B|--------------------|--------------------|
G|--------------------|--------------------|
D|--------------------|--------------------|
A|--8~~---------------|-----8888-5555-7777-|
E|--------------------|-6666---------------|
 |                    |                    |
e|--------------------|--------------------|
B|--------------------|--------------------|
G|--3-----------------|-(3)----------------|
D|--3-----------------|-(3)----------------|
A|--1-----------------|-(1)----------------|
E|--------------------|--------------------|


e|--------------------|--------------------|
B|--------------------|--------------------|
G|--------------------|--------------------|
D|--------------------|--------------------|
A|--7~~---------------|-5-77-7--7-5-77-7-7-|
E|--------------------|--------------------|
 |                    |                    |
e|--------------------|--------------------|
B|--------------------|--------------------|
G|--------------------|--------------------|
D|--2-----------------|-(2)----------------|
A|--2-----------------|-(2)----------------|
E|--0-----------------|-(0)----------------|


e|--------------------|--------------------|
B|-----------11-------|------------11~~~~--|
G|--9b~r----------9b~-|-9r-----------------|
D|--------8-----------|------8-------------|
A|--------------------|--------------------|
E|--------------------|--------------------|
 |                    |                    |
e|--------------------|--------------------|
B|--------------------|--------------------|
G|--3-----------------|-(3)----------------|
D|--3-----------------|-(3)----------------|
A|--1-----------------|-(1)----------------|
E|--------------------|--------------------|


e|-15-12----12-15-12-15-12-12-12-17-12-15-12---12-|
B|-------15----------------------------------15---|
G|------------------------------------------------|
D|------------------------------------------------|
A|------------------------------------------------|
E|------------------------------------------------|
 |                                                |
e|------------------------------------------------|
B|------------------------------------------------|
G|------------------------------------------------|
D|--2---------------------------------------------|
A|--2---------------------------------------------|
E|--0---------------------------------------------|


e|-15-12----12-15-12-15-12-12-12-17-12-15-12---12-|--12-----|
B|-------15----------------------------------15---|--15b----|
G|------------------------------------------------|---------|
D|------------------------------------------------|---------|
A|------------------------------------------------|---------|
E|------------------------------------------------|---------|
 |                                                |
e|------------------------------------------------|
B|------------------------------------------------|
G|------------------------------------------------|
D|-(2)-------------5------------------7-----------|
A|-(2)-------------3------------------5-----------|
E|-(0)--------------------------------------------|


CHORUS:
[FIG: 4]
(x2)
Blood rains from the sky
Love is just a Christian lullabye
I can't believe, I'd rather die

Blood rains from the sky
Preaching love while tortured victims cry
I won't believe, I'd rather die


| /  slide up
| \  slide down
| h  hammer-on
| p  pull-off
| ~  vibrato
| +  harmonic
| x  Mute note
===============================================================================
Tap to rate this tab
# A B C D E F G H I J K L M N O P Q R S T U V W X Y Z