Song name
# A B C D E F G H I J K L M N O P Q R S T U V W X Y Z

Rebellion - On The Edge Of Life tab

-------------------------------------------------------------------------------
		  ON THE EDGE OF LIFE - REBELLION
-------------------------------------------------------------------------------
REBELLION
On The Edge Of Life
From: Miklagard (2007)

Tabbed by:malpka

Tuning: Standard

INTRO:
e|----------|||---------+7-------------|
B|----------|||---------+7-------------|
G|----------|||--9---------------------|
D|----------|||--9---------------------|
A|----------|||--7---------------------|
E|----------|||--0---------------------|


e|------------------------------|------------------------------|
B|------------------------------|------------------------------|
G|------------------------------|------------------------------|
D|--2---------------------------|------------------------------|
A|--2---------------------------|------------------------------|
E|--0------0-0-0--0-0-0--0-0-0--|--0-0-0--0-0-0--0-0-0--0-0-0--|
 |                              |                              |
e|-(0)--------------------------|-(0)--------------------------|
B|-(0)--------------------------|-(0)--------------------------|
G|-(0)--------------------------|-(0)--------------------------|
D|-(2)--------------------------|-(2)--------------------------|
A|-(2)--------------------------|-(2)--------------------------|
E|-(0)--------------------------|-(0)--------------------------|


e|------------------------------|------------------------------|
B|------------------------------|------------------------------|
G|------------------------------|------------------------------|
D|------------------------------|------------------------------|
A|------------------------------|------------------------------|
E|--0-0-0--0-0-0--0-0-0--0-0-0--|--0-0-0--0-0-0--0-0-0--0-0-0--|
 |                              |                              |
e|-(0)--------------------------|-(0)--------------------------|
B|-(0)--------------------------|-(0)--------------------------|
G|-(0)--------------------------|-(0)--------------------------|
D|-(2)--------------------------|-(2)--------------------------|
A|-(2)--------------------------|-(2)--------------------------|
E|-(0)--------------------------|-(0)--------------------------|

e|------------------------------|------------------------------|
B|------------------------------|------------------------------|
G|------------------------------|------------------------------|
D|--0--2------------------------|------------------------------|
A|--0--2------------------------|------------------------------|
E|---------0-0-0--0-0-0--0-0-0--|--0-0-0--0-0-0--0-0-0--0-0-0--|
 |                              |                              |
e|--0---------------------------|-(0)--------------------------|
B|--0---------------------------|-(0)--------------------------|
G|--0---------------------------|-(0)--------------------------|
D|--2---------------------------|-(2)--------------------------|
A|--2---------------------------|-(2)--------------------------|
E|--0---------------------------|-(0)--------------------------|


e|------------------------------|------------------------------|
B|------------------------------|------------------------------|
G|------------------------------|------------------------------|
D|------------------------------|------------------------------|
A|------------------------------|------------------------------|
E|--0-0-0--0-0-0--0-0-0--0-0-0--|--0-0-0--0-0-0--0-0-0--0-0-0--|
 |                              |                              |
e|------------------------------|------------------------------|
B|------------------------------|------------------------------|
G|--5---------------------------|-(5)------------4-------------|
D|--5---------------------------|-(5)------------4-------------|
A|--3---------------------------|-(3)------------2-------------|
E|------------------------------|------------------------------|

e|------------------------------|------------------------------|
B|------------------------------|------------------------------|
G|------------------------------|------------------------------|
D|--0--2------------------------|------------------------------|
A|--0--2------------------------|------------------------------|
E|---------0-0-0--0-0-0--0-0-0--|--0-0-0--0-0-0--0-0-0--0-0-0--|
 |                              |                              |
e|--0---------------------------|-(0)--------------------------|
B|--0---------------------------|-(0)--------------------------|
G|--0---------------------------|-(0)--------------------------|
D|--2---------------------------|-(2)--------------------------|
A|--2---------------------------|-(2)--------------------------|
E|--0---------------------------|-(0)--------------------------|


e|------------------------------|------------------------------|
B|------------------------------|------------------------------|
G|------------------------------|------------------------------|
D|------------------------------|------------------------------|
A|------------------------------|------------------------------|
E|--0-0-0--0-0-0--0-0-0--0-0-0--|--0-0-0--0-0-0--0-0-0--0-0-0--|
 |                              |                              |
e|------------------------------|------------------------------|
B|------------------------------|------------------------------|
G|--5---------------------------|--7------7------7------7------|
D|--5---------------------------|--7------7------7------7------|
A|--3---------------------------|--5------5------5------5------|
E|------------------------------|------------------------------|


VERSE:
[FIG: 2]
                 The raging storms lead us north
e|------------------------------|------------------------------|
B|------------------------------|------------------------------|
G|--5------4--------------------|------------------------------|
D|--5------4-----------------4--|-------------4-------------4--|
A|--3------2------2-2-2--2-2-2--|--2-2-2--2-2-2--2-2-2--2-2-2--|
E|------------------------------|------------------------------|

                 Along the icy Neva's shores
e|------------------------------|------------------------------|
B|------------------------------|------------------------------|
G|--5------4--------------------|------------------------------|
D|--5------4-----------------4--|-------------4-------------4--|
A|--3------2------2-2-2--2-2-2--|--2-2-2--2-2-2--2-2-2--2-2-2--|
E|------------------------------|------------------------------|


                                   Sailing ever north
e|------------------------------------|------------------------------------|
B|------------------------------------|------------------------------------|
G|------------------------------------|------------------------------------|
D|------------------------------------|------------------------------------|
A|------------------------------------|------------------------------------|
E|-0-0-0-0--0-0-0-0--0-0-0-0--0-0-0-0-|-0-0-0-0--0-0-0-0--0-0-0-0--0-0-0-0-|


e|------------------------------------|------------------------------------|
B|------------------------------------|------------------------------------|
G|----------4-------------------------|------------------------------------|
D|--5-------4-------------------------|------------------------------------|
A|--5-------2-------------------------|------------------------------------|
E|--3----------------0-0-0-0--0-0-0-0-|-0-0-0-0--0-0-0-0--0-0-0-0--0-0-0-0-|


VERSE:
[FIG: 2]
A strange white light floats on the clouds
The silence screams at us so loud
Faces in the clouds


CHORUS:
[FIG: 3]
                   Through this world of ice and snow
e|------------------------|------------------------|
B|------------------------|------------------------|
G|--9-----9-----9-----11--|--9~~-------12\---------|
D|--9-----9-----9-----11--|--9~~-------12\---------|
A|--7-----7-----7-----9---|--7~~-------10\---------|
E|------------------------|------------------------|

                   In the dawn strange creatures glow
e|------------------------|------------------------|
B|------------------------|------------------------|
G|--5-----5-----5-----4---|--5~~--------7\---------|
D|--5-----5-----5-----4---|--5~~--------7\---------|
A|--3-----3-----3-----2---|--3~~--------5\---------|
E|------------------------|------------------------|


                      Frozen giants passing by
e|------------------------|------------------------|
B|------------------------|------------------------|
G|--2-----2-----2---------|--2~~---------------4~--|
D|--2-----2-----2-----0---|--2~~---------2-2-2-4~--|
A|--0-----0-----0---------|--0~~---------0-0-0-2~--|
E|--------------------3---|------------------------|

                 Standing on the edge of the life
e|------------------------|------------------------|
B|------------------------|------------------------|
G|------------------------|--5~--------------------|
D|--5-----5-----5-----5---|--5~-------5-----3------|
A|--3-----3-----3-----2---|--3~-------5-----3------|
E|------------------------|-----------3-----1------|


CHORUS:
[FIG: 3]
Sailing on and never stop
Hold the sails don't let them drop
Here the stranded have to die
Sailing on the edge of life


[FIG: 4]
e|------------------------|------------------------|
B|------------------------|------------------------|
G|------------------------|------------------------|
D|--3--2------------------|------------------------|
A|--3--2------------------|----------2-----------2-|
E|-------0-0-0-0-0-0-0-0--|--0-0-0-0-0---0-0-0-0-0-|


e|------------------------|------------------------|
B|------------------------|------------------------|
G|------------------------|------------------------|
D|--3--2------------------|------------------------|
A|--3--2------------------|----------2--2----------|
E|-------0-0-0-0-0-0-0-0--|--0-0-0-0-0--0--0-0-0-0-|


VERSE:
[FIG: 2]
An icy lake before us lies
Frozen smiles in weary eyes
Cold and empty eyes

Following the northern star
As we head for Ladoga
The northern star


CHORUS:
[FIG: 3]
Through this world of ice and snow
In the dawn strange creatures glow
Frozen giants passing by
Standing on the edge of the life

Sailing on and never stop
Hold the sails don't let them drop
Here the stranded have to die
Sailing on the edge of life

VERSE:
[FIG: 5]
                    The land where ancient giants dwell
e|------------------------|------------------------|
B|------------------------|------------------------|
G|------------------------|---------------------9--|
D|--2---------------------|---------------------9--|
A|--2---------------------|---------------------7--|
E|--0---------0-00--0-00--|--0-00--0-00--0-00------|

                         What is real who can tell
e|------------------------|------------------------|
B|------------------------|------------------------|
G|--7---------------------|--5---------4-----------|
D|--7---------------------|--5---------4-----------|
A|--5---------5-55--5-55--|--3---------2-----------|
E|------------------------|------------------------|


                      Eager eyes they seem to stare
e|------------------------|------------------------|
B|------------------------|------------------------|
G|------------------------|---------------------9--|
D|--2---------------------|---------------------9--|
A|--2---------------------|---------------------7--|
E|--0---------0-00--0-00--|--0-00--0-00--0-00------|

                        Ghastly sighs in the air
e|------------------------|------------------------|
B|------------------------|------------------------|
G|--7---------------------|--5---------2-----------|
D|--7---------------------|--5---------2-----------|
A|--5---------5-55--5-55--|--3---------0-----------|
E|------------------------|------------------------|


                Who claims my soul who knows the deal
e|------------------------|------------------------|
B|------------------------|------------------------|
G|------------------------|---------------------9--|
D|--2---------------------|---------------------9--|
A|--2---------------------|---------------------7--|
E|--0---------0-00--0-00--|--0-00--0-00--0-00------|

                        Claws of ice  I can feel
e|------------------------|------------------------|
B|------------------------|------------------------|
G|--7---------------------|--5---------4-----------|
D|--7---------------------|--5---------4-----------|
A|--5---------5-55--5-55--|--3---------2-----------|
E|------------------------|------------------------|


                  Stone cold fingers touch my heart
e|------------------------|------------------------|
B|------------------------|------------------------|
G|------------------------|------------------------|
D|--2---------------------|---------------------3--|
A|--2---------------------|---------------------3--|
E|--0---------0-00--0-00--|--0-00--0-00--0-00---1--|

                         Hold it tight tear it apart
e|------------------------|------------------------|
B|------------------------|------------------------|
G|------------------------|--7---------5-----------|
D|--5---------------------|--7---------5-----------|
A|--5---------------------|--5---------3-----------|
E|--3---------3-33--3-33--|------------------------|

CHORUS:
[FIG: 6]
                   Through this world of ice and snow
e|------------------------|------------------------|
B|------------------------|------------------------|
G|------------------------|--7---------------------|
D|--2---------------------|--7---------------------|
A|--2---------------------|--5---------------------|
E|--0---------------------|------------------------|

                   In the dawn strange creatures glow
e|------------------------|------------------------|
B|------------------------|------------------------|
G|--4---------------------|--5--------7------------|
D|--4---------------------|--5--------7------------|
A|--2---------------------|--3--------5------------|
E|------------------------|------------------------|


                      Frozen giants passing by
e|------------------------|------------------------|
B|------------------------|------------------------|
G|------------------------|--7---------------------|
D|--2---------------------|--7---------------------|
A|--2---------------------|--5---------------------|
E|--0---------------------|------------------------|

                 Standing on the edge of the life
e|------------------------|------------------------|
B|------------------------|------------------------|
G|--4---------------------|------------------------|
D|--4---------------------|--5--------3------------|
A|--2---------------------|--5--------3------------|
E|------------------------|--3--------1------------|


                         Sailing on and never stop
e|------------------------|------------------------|
B|------------------------|------------------------|
G|------------------------|--7---------------------|
D|--2---------------------|--7---------------------|
A|--2---------------------|--5---------------------|
E|--0---------------------|------------------------|

                    Hold the sails don't let them drop
e|------------------------|------------------------|
B|------------------------|------------------------|
G|--4---------------------|--5--------7------------|
D|--4---------------------|--5--------7------------|
A|--2---------------------|--3--------5------------|
E|------------------------|------------------------|


                       Here the stranded have to die
e|------------------------|------------------------|
B|------------------------|------------------------|
G|------------------------|--7---------------------|
D|--2---------------------|--7---------------------|
A|--2---------------------|--5---------------------|
E|--0---------------------|------------------------|

              Sailing on the edge of life
e|------------------------|------------------------|
B|------------------------|------------------------|
G|--4---------------------|------------------------|
D|--4---------------------|--5--------3------------|
A|--2---------------------|--5--------3------------|
E|------------------------|--3--------1------------|

SOLO:
[FIG: 5] sim

e|-----------------------|
B|-----------------------|
G|-----------------------|
D|--2--------------------|
A|--2--------------------|
E|--0--------------------|


INTERLUDE:

[FIG: 7]
X4
e|------------------------|------------------------|
B|------------------------|------------------------|
G|-9--11-12~~~------------|-9--11-12-9--14~--12-11-|
D|------------------------|------------------------|
A|-7--9--10~~~------------|-7--9--10-7--12~--10--9-|
E|------------------------|------------------------|


e|------------------------|------------------------|
B|------------------------|------------------------|
G|-9--11-12~~~------------|-9--12--11-9--7~~-------|
D|------------------------|------------------------|
A|-7--9--10~~~------------|-7--10--9--7--5~~-------|
E|------------------------|------------------------|

e|------------------------|------------------------|
B|------------------------|------------------------|
G|-9--11-12~~~------------|-9--11-12-9--14~--12-11-|
D|------------------------|------------------------|
A|-7--9--10~~~------------|-7--9--10-7--12~--10--9-|
E|------------------------|------------------------|
 |                        |                        |
e|------------------------|------------------------|
B|------------------------|------------------------|
G|------------------------|------------------------|
D|------------------------|------------------------|
A|-2--2--2--2--2--2--2--2-|-2--2--2--2--2--2--2--2-|
E|-0--0--0--0--0--0--0--0-|-0--0--0--0--0--0--0--0-|


e|------------------------|------------------------|
B|------------------------|------------------------|
G|-9--11-12~~~------------|-9--12--11-9--7~~-------|
D|------------------------|------------------------|
A|-7--9--10~~~------------|-7--10--9--7--5~~-------|
E|------------------------|------------------------|
 |                        |                        |
e|------------------------|------------------------|
B|------------------------|-------------3--3--3--3-|
G|------------------------|-------------2--2--2--2-|
D|------------------------|-------------0--0--0--0-|
A|-2--2--2--2--2--2--2--2-|-2--2--2--2--0--0--0--0-|
E|-0--0--0--0--0--0--0--0-|-0--0--0--0-------------|


e|-----------------------|
B|-----------------------|
G|-----------------------|
D|--2--------------------|
A|--2--------------------|
E|--0--------------------|


CHORUS:
[FIG: 3]
Through this world of ice and snow
In the dawn strange creatures glow
Frozen giants passing by
Standing on the edge of the life

Sailing on and never stop
Hold the sails don't let them drop
Here the stranded have to die
Sailing on the edge of life


OUTRO:

e|------------------------|-------------0----------|
B|------------------------|----------0-----0-------|
G|-------0-----0----------|-------0-----------0----|
D|----------4-------------|----------------------4-|
A|----2-------------------|----2-------------------|
E|-0----------------------|-0----------------------|


e|------------------------|-------------0----------|
B|------------------------|----------0-----0-------|
G|-------0-----0----------|-------0-----------0----|
D|----------4-------------|----------------------4-|
A|----2-------------------|----2-------------------|
E|-3----------------------|-3----------------------|

e|------------------------|-------------0----------|
B|------------------------|----------0-----0-------|
G|-------0-----0----------|-------0-----------0----|
D|----4-----4-------------|----4-----------------4-|
A|-0----------------------|-0----------------------|
E|------------------------|------------------------|


e|------------------------|-------------0----------|
B|------------------------|----------0-----0-------|
G|-------0-----0----------|-------0-----------0----|
D|----4-----4-------------|----4-----------------4-|
A|-5----------------------|-5----------------------|
E|------------------------|------------------------|


e|--0--------------------|
B|--0--------------------|
G|--0--------------------|
D|--2--------------------|
A|--2--------------------|
E|--0--------------------|

| /  slide up
| \  slide down
| h  hammer-on
| p  pull-off
| ~  vibrato
| +  harmonic
| x  Mute note
===============================================================================
Tap to rate this tab
# A B C D E F G H I J K L M N O P Q R S T U V W X Y Z