Song name
# A B C D E F G H I J K L M N O P Q R S T U V W X Y Z

Rebellion - Evil Speaks tab

http://www.rebellion.st/

Artist: Rebellion
Song: Evil Speaks
Album: Shakespeare's Macbeth
Tabbed by: Pacifica

Tuning: Standart (EADGBe)


pm  - palm mute           /  - slide up to
\  - slide down to       ~  - vibrato
h  - hammer on           b  - Bend
p  - pull off            Suffixes for bend
t  - tap                 f  - full bend    h - half bend
ph - pinched harmonic    q  - quarter bend t - tap bend
*  - see comment         ^  - Hold bend    r release bend
x  - Stuccatto           ~  - vibrato bend
,  - slight palm mute    () - ghost note, sustained note
"  - tremolo note        <> - Trill


e----------------------------------------------------------------------|
B----------------------------------------------------------------------|
G----------------------------------------------------------------------|
D---------4--4--4--4--4--4--4--4--4--4--4------------------------------| 3x
A---------4--4--4--4--4--4--4--4--4--4--4------------------------------|
E---------2--2--2--2--2--2--2--2--2--2--2------------------------------|
             pm pm    pm  pm   pm    pm pm

e----------------------------------------------------------------------|
B----------------------------------------------------------------------|
G----------------------------------------------------------------------|
D---------4--4--4--4--4--4--4-----4--4--4------------------------------|
A---------4--4--4--4--4--4--4-----4--4--4------------------------------|
E---------2--2--2--2--2--2--2--0--2--2--2------------------------------|
             pm pm    pm pm          pm pm

e----------------------------------------------------------------------|
B----------------------------------------------------------------------|
G----------------------------------------------------------------------|
D---------4--4--4--4--4--4--4--4--4--4--4------------------------------| 3x
A---------4--4--4--4--4--4--4--4--4--4--4------------------------------|
E---------2--2--2--2--2--2--2--2--2--2--2------------------------------|
             pm pm    pm  pm   pm    pm pm


                              Singer starts ...
e----------------------------------------------------------------------|
B----------------------------------------------------------------------|
G----------------------------------------------------------------------|
D---------4--4--4--4--4--4--4-----4--4--4------------------------------|
A---------4--4--4--4--4--4--4-----4--4--4------------------------------|
E---------2--2--2--2--2--2--2--0--2--2--2------------------------------|
             pm pm    pm pm          pm pm


Repeat the first to parts twice


e----------------------------------------------------------------------|
B----------------------------------------------------------------------|
G----------------------------------------------------------------------|
D---------2--2--2--2--2--2--2--2---2--2--2-----------------------------| 2x
A---------2--2--2--2--2--2--2--2---2--2--2-----------------------------|
E---------0--0--0--0--0--0--0--0---0--0--0-----------------------------|
             pm pm    pm pm    pm    pm  pm

e----------------------------------------------------------------------|
B----------------------------------------------------------------------|
G----------------------------------------------------------------------|
D---------2--2--2--2--2--2--2--2---2--2--2----------7-7-7--------------|
A---------2--2--2--2--2--2--2--2---2--2--2----------7-7-7--------------|
E---------0--0--0--0--0--0--0--0---0--0--0----------5-5-4--------------|
             pm pm    pm pm    pm     pm pm


e----------------------------------------------------------------------|
B----------------------------------------------------------------------|
G----------------------------------------------------------------------|
D---------4--4--4--4--4--4--4--4--4--4--4------------------------------| 3x
A---------4--4--4--4--4--4--4--4--4--4--4------------------------------|
E---------2--2--2--2--2--2--2--2--2--2--2------------------------------|
             pm pm    pm  pm   pm    pm pm


e----------------------------------------------------------------------|
B----------------------------------------------------------------------|
G----------------------------------------------------------------------|
D---------4--4--4--4--4--4--4-----4--4--4------------------------------|
A---------4--4--4--4--4--4--4-----4--4--4------------------------------|
E---------2--2--2--2--2--2--2--0--2--2--2------------------------------|
             pm pm    pm pm          pm pm


Well, this are the main parts. Seems to be pretty simple and ain't to be
a problem.
Just listen a little bit what the guitars do to play parallel!

At 2:22 they are playing this:

e-------------------------------------------------------|
B-------------------------------------------------------|
G-------------------------------------------------------|
D-------------------------------------------------------|
A-------------------------------------------------------|
E-----7--9--10---12--10-9--12--9--10--12----------------|


END
Tap to rate this tab
# A B C D E F G H I J K L M N O P Q R S T U V W X Y Z