Song name
# A B C D E F G H I J K L M N O P Q R S T U V W X Y Z

Rebelution - Heart Like A Lion tab

-------------------------------------------------------------------------------
			     HEART LIKE A LION - Rebelution
-------------------------------------------------------------------------------
Tabbed by:  Murasaki
Email:  orenmurasaki@gmail.com

Tuning:  EADGBe

Intro:

e|---------------------------------------------------------------------------|
B|-----------5----5----5----5----5----5--------------------------------------|
G|--5-----4-------------------------------(x4)---5---4-----------------------|
D|---------------------------------------------------------------------------|
A|---------------------------------------------------------------------------|
E|---------------------------------------------------------------------------|

Guitar I (comes in during intro)


e|--------------------------------------------------------------0------------|
B|------------------------------------------1-----------3--------------------|
G|----------------0--------2-------4-------------------------------(x2)------|
D|--2-------4----------------------------------------------------------------|
A|---------------------------------------------------------------------------|
E|---------------------------------------------------------------------------|

Guitar II (comes in after intro)


e|----------------------------------------------------------------0----------|
B|------------------------3----------------3---------------0h1---------------|
G|--------------2/4----------------2-----4---------2---2---------------------|
D|--2---2---4----------------------------------------------------------------|
A|---------------------------------------------------------------------------|
E|---------------------------------------------------------------------------|



e|----------------0--------------------------------------0-0-----0-0---------|
B|-------0h1------------------------3--3--------3----------------------------|
G|--2-2------------------------2/4--------2--4-----2--2------2-2-------------|
D|--------------------2--2--4------------------------------------------------|
A|---------------------------------------------------------------------------|
E|---------------------------------------------------------------------------|

| /  slide up
| \  slide down
| h  hammer-on
| p  pull-off
| ~  vibrato
| +  harmonic
| x  Mute note
===============================================================================
Tap to rate this tab
 
# A B C D E F G H I J K L M N O P Q R S T U V W X Y Z