Song name
# A B C D E F G H I J K L M N O P Q R S T U V W X Y Z

Rebelution - R Way tab

----------------------------------------------------------------------------
			     R WAY - Rebelution
----------------------------------------------------------------------------

Tabbed by: Alex

Email: algoblin13@gmail.com

Tuning: Standard
  


Finally a tab for this song. It's probably about 99% correct.
 
Chords:

e|---5-5---3-3---7-7---5-5-5-5---3-3---7-7---5-5----|
B|---5-5---3-3---8-8---5-5-5-5---3-3---8-8---5-5----|
G|---5-5---4-4---9-9---5-5-5-5---4-4---9-9---5-5----|
D|---7-7---5-5---9-9---7-7-7-7---5-5---9-9---7-7----|
A|---------5-5-------------------5-5----------------|
E|---------3-3-------------------3-3----------------|

Repeat until it changes to this:

e|---5-5---3-3---5-5---7-7---|
B|---5-5---3-3---5-5---8-8---|
G|---5-5---4-4---5-5---9-9---|
D|---7-7---5-5---7-7---9-9---|
A|---------5-5---------------|
E|---------3-3---------------|

the solo is pretty easy but is awesome.

Solo:

e|------------------------------------------------------------|
B|-------12-13-15-13-12----12---------------------------------|
G|---14-----------------------12-14-12-12h13-12-14-14\--------|
D|------------------------------------------------------------|
A|------------------------------------------------------------|
E|------------------------------------------------------------|

e|------------------------------------------------------------|
B|-------12-13-15-13-12----12h13p12---------------------------|
G|---14-----------------------------12-14-12-12h13-12-14-14---|
D|------------------------------------------------------------|
A|------------------------------------------------------------|
E|------------------------------------------------------------|

e|---------------------------------------------------------------------|
B|---17-13-12-------13-------13-15-13-12-----12-15-12-15-13-12----13---|
G|------------14-------14-12-----------------------------------14------|
D|---------------------------------------------------------------------|
A|---------------------------------------------------------------------|
E|---------------------------------------------------------------------|

e|----------------------------------------------|
B|---17-13-12--------13-12----13----13-12-------|
G|------------14-----------14----14-------------|
D|----------------------------------------------|
A|----------------------------------------------|
E|----------------------------------------------|

e|------------------------------------------------------------|
B|---13-12-13-12-------12-12h13-12----------17-13-12----------|
G|---------------12-14-------------14-14-------------14-12-10-|
D|------------------------------------------------------------|
A|------------------------------------------------------------|
E|------------------------------------------------------------|

e|-----------------------------------------------------|
B|---12h13-12-------12h13-12-------13----------12-13---|
G|------------14-12----------14-12----14----14---------|
D|-----------------------------------------------------| x2
A|-----------------------------------------------------|
E|-----------------------------------------------------|

e|----------------------------------------------------|
B|---15-17-20-18-17-------17h18p17----------17-17-----|
G|------------------17-19----------19-17-19-------17--|
D|----------------------------------------------------|
A|----------------------------------------------------|
E|----------------------------------------------------|

e|---------------------------------------------------------------------|
B|---17----------17-17h18p17-------------------------------------------|
G|------19-17-19-------------19-17-19h21p19-17----16-16h17-16-14\------|
D|---------------------------------------------19----------------------|
A|---------------------------------------------------------------------|
E|---------------------------------------------------------------------|
Tap to rate this tab
 
# A B C D E F G H I J K L M N O P Q R S T U V W X Y Z