Song name
# A B C D E F G H I J K L M N O P Q R S T U V W X Y Z

Rebelution - Green To Black tab

Intro
(0:0-0:13)
|-------11-10-8-8-10----------|
|--8--8--------------11-10-8--|
|-----------------------------|
|-----------------------------|  x3
|-----------------------------|
|-----------------------------|
(0:13-0:16)
|-------11-10-11-11-11-10-----|
|--8--8-----------------------|
|-----------------------------|
|-----------------------------|
|-----------------------------|
|-----------------------------|
(0:16-0:30)
|-------11-10-8-8-10----------|
|--8--8--------------11-10-8--|
|-----------------------------|
|-----------------------------|  x4
|-----------------------------|
|-----------------------------|
(0:30-0:44)
|---------------------8-----------|
|--8--8-8-11-8-8-8-11---10----8---|
|--------------------------10-----|
|---------------------------------| x4
|---------------------------------|
|---------------------------------|

Verse (starts at 0:16-1:10)
Verse and Chorus are the same

|-3-3--3--5-----------------------|
|-3-3--4--6-----------------------|
|-3-3--5--7-----------------------|
|-5-5--5--7-----------------------|  x3
|---------------------------------|
|---------------------------------|
(1:10)  Much Respect to all the people thinking green
|--------|
|--------|
|--8--7--|
|--8--7--|  
|--6--5--|
|--------|
(1:39-1:52)
|---------------------8-----------|
|--8--8-8-11-8-8-8-11---10----8---|
|--------------------------10-----|
|---------------------------------| x4
|---------------------------------|
|---------------------------------|
Interlude (3:14-3:18) 
|------------------------|
|------------------------|
|--------7-5-8-7---------|
|--5-7-8---------8-5-----| 
|------------------------|
|------------------------|
(3:21-3:24)
|------------------|
|----------------8-|
|--------5-7-8-7---|
|--5-7-8-----------| 
|------------------|
|------------------|
Repeat until fade out
|-------11-10-8-8-10----------|
|--8--8--------------11-10-8--|
|-----------------------------|
|-----------------------------|  
|-----------------------------|
|-----------------------------|
Tap to rate this tab
 
# A B C D E F G H I J K L M N O P Q R S T U V W X Y Z