Song name
# A B C D E F G H I J K L M N O P Q R S T U V W X Y Z

Rebelution - Feeling Alright tab

E---------------------------------------0H2P0--------------2--5--3-|
H----------------------------------------------3P0---------3-------|
G----------------4---5---4-------2(lr)-----------------------------|
D---------5--7----------------0------------------------------------|
A--------------------0------------------------------2(lr)----------|
E-----0------------------3-----------------------------------------|

E-------------------------------------------------------------|
H---------------------------------0--(0)----------------------|
G----------------4---5---4--------2---0----------------0H2P0--|
D---------5--7----------------0----------4---0-----4----------|
A--------------------0--------------------------2-------------|
E-----0------------------3------------------------------------|


Legend:

 H   : Hammer on
 P   : Pull off
(lr) : let ring
Tap to rate this tab
# A B C D E F G H I J K L M N O P Q R S T U V W X Y Z