Song name
# A B C D E F G H I J K L M N O P Q R S T U V W X Y Z

Rebelution - Safe And Sound tab

-------------------------------------------------------------------------------
			     Safe and Sound - Rebelution
-------------------------------------------------------------------------------
Tabbed by:Grahamrocks917

Ok, this is my first tab ever on this website,
and this is tabbed by ear,
and a special program you can use to slow things down to hear notes clearly.
I really hope you guys like this tab/song!

Tuning:

Intro:
You kinda have to sweep on some parts, really easy though, just listen to the song.

e|-------12--15--13---13-12--------------------------12-13----12-------------|
B|----13--------------------15-13-12--------12-13-15-------15----13----------|
G|-14------------------------------------12----------------------------------|
D|------------------------------------14-------------------------------------|
A|---------------------------------------------------------------------------|
E|---------------------------------------------------------------------------|

Verse: The guitar is kinda hard to hear because of the bass and vox, but here's what I got.

Play this a million times:

e|--5--------5-------5-------7-----------------------------------------------|
B|--5--------5-------6-------8-----------------------------------------------|
G|--5--------5-------7-------7-----------------------------------------------|
D|---------------------------------------------------------------------------|
A|---------------------------------------------------------------------------|
E|---------------------------------------------------------------------------|


For the Chorus, one guitar plays the intro, and the other plays the verse.

Starting at 3:18-3:43 (The Bridge kind of thing)it's mainly just bass, singing, and some 
guitar effects I think.

At 3:43, play verse.

To end the song just play the intro over again, and then the verse.

Yep, Safe and Sound is pretty easy to play and learn.
Please rate this tab 5 stars, I'm pretty positive this is the best tab for this song.

| /  slide up
| \  slide down
| h  hammer-on
| p  pull-off
| ~  vibrato
| +  harmonic
| x  Mute note
===============================================================================
Tap to rate this tab
# A B C D E F G H I J K L M N O P Q R S T U V W X Y Z