Song name
# A B C D E F G H I J K L M N O P Q R S T U V W X Y Z

Rebelution - Feeling Alright tab

Standard Tuning

Play 2X
e---------------------------------------------------------| 
b------------------------------------------------7--------| 
g---9--9----4-5-7---9----7---7--7----------7-------7------| 
d---9--9----5-5-5---10---9---7--7----7---7---7-------7----| 
a--------------------------------------9-------9----------| 
E---------------------------------------------------------| 

e---------------------------------------------------------| 
b---------------------------------------------------------| 
g---9--9----4-5-7---9----7---7--7---7-7--2-2--2---2-4-2---| 
d---9--9----5-5-5---10---9---7--7---7-7--4-4--4-----------| 
a---------------------------------------------------------| 
E---------------------------------------------------------|
Tap to rate this tab
 
# A B C D E F G H I J K L M N O P Q R S T U V W X Y Z