Song name
# A B C D E F G H I J K L M N O P Q R S T U V W X Y Z

Rebelution - Feeling Alright tab

Beginning of feeling alright acoustic version.

listen here

(also got tabs from here)
http://www.youtube.com/watch?v=Uplsc7TiliM

-----------------------------------0h2p0-------------|
-----------0---1---0-----------3----------3----------|
-----0h2---------------------2---------------0-------|
---------------------------0~~~~~~~~~----------------|
----------------0------------------------------------|
--0~~~-----------3-----------------------------------|

--------------2~--5--3----------------------------|
------------3---------------------------0--1---0--|
----------2-----------------------0h2-------------|
-----4~~~~~----------------0----------------------|
--2~~~~~~---------------2-------------0-----------|
---------------------------0~~-----------------3--|


------------------------------------------------------|
------3-----------------------------------------------|
------2---0--------------------0h2--0-----------------|
--0~~~~---4---0--------4~~~~~-------------------------|
------------------------2-----------------------------|
--------------------------------------------0~~-------|

--------------------------------------------------------------|
---8--10--12--13------15-----12------13-----------------------|
--0--------------------0--------0-------0------0---H7*--------|
-------------------------------------------------------H7*----|
-7-----9---10--12---12--------10-----10-----------------------|
--------------------------------------------------------------|

-------------------------------------------------------|
-----------7~~~~~~~-----------8~~~~--------------------|
---------------7~~~7~---------------7~~----------------|
-------------------9~~~--------9-~~~~9-----------------|
--------9~~~~~~~~-----7~~~~~~~-------------------------|
---7~~~~~~~~~~~----------------------------------------|

---------------------------------------------------------|
-----------5------------5------------------7-------------|
-----------5------------6---------------------7---7------|
-----------5------------5-------------7--------7---------|
------7~~~-------5~~~----3/5----5------------------------|
---5~~~~~----3~~~~---------------------------------------|

------------------------------------------------|
----------7~~~8---------------8---10--12--------|
-------7~~7~~-----------------------------------|
-----7~7~~7~---------9--------------------------|
----------------------7----7----7----9---10-----|
--7~~~~~~~~~------------------------------------|


------------------------------------------------|
--12/13-----13---13/12------12------------------|
------------0------0------------0-------0-------|
--------------------------------------------0~--|
--10/12---12-----12/10---10---------------------|
------------------------------------------------|

------0h2p0-------------0~~~~~~~------------|
----3---------3--------------3~~~~~---------|
--2-------------0--------------0~~~~--------|
~~~~~~~~~~~-----4~~~~~4~~-------------------|
--------------------2~~~~~~~~~~~------------|
---------------------------------------0----|

----------------------------------------------|
-----------0---1-----1----0------0------------|
------0h2-------0-----0-----0-----0--2~-------|
----0-------------------------------------0~--|
--2------------0---0--------------------------|
----------------------------3----3------------|

-------------------------------------|
--3----------------------------------|
--2--0-------------0h2-0~~~~---------|
--------4--0-----4-------------------|
--------------2~~--------------------|
-------------------------------0~----|

------------------------------------------------------|
-8--10--12--13-------15----12------13-----------------|
-0---0---0----0-- 0-------0------0-------0---H7*------|
-------------------------------------------------H7*--|
7---9---10--12----12-------10---10--------------------|
------------------------------------------------------|

----------0~~~~~~~-------------------------------------|
-------------3~~~~~--------------0---1---0----3--------|
----------------0~~~~------0h2-----------------2-------|
-----4~~~~~~4~~-------------------2----0---------------|
2~~~~~~~~~~~~------2-----------0---------0-------------|
------------------------0----------------------3-------|


-------------------------------------|
--3----------------------------------|
--2--0-------------0h2-0~~~~---------|
--------4--0-----4-------------------|
--------------2~~--------------------|
-------------------------------0~----|
Tap to rate this tab
 
# A B C D E F G H I J K L M N O P Q R S T U V W X Y Z