Song name
# A B C D E F G H I J K L M N O P Q R S T U V W X Y Z

Rebelution - Suffering tab

with Rebelution being one of my favorite reggae bands of all time i was upset when 
for this tab. so i put in a little work and tabbed it out! so for the Rebelution fans out 
looking for tabs, this is for you.

Suffering - Rebelution

Intro

e--19--17------19---|
B----------19-------|
G-------------------|
D-------------------|
A-------------------|
E-------------------|

this part is played very quietly with some echo


Verse / Chorus
e--------7--7----------5----------3----------7--7----------7--7---|
B--------7--7----------5----------3----------7--7----------7--7---|
G--------7--7----------6----------4----------7--7----------7--7---|
D--------9--9----------7----------5----------9--9----------9--9---|
A-----9--9--9-------7--7-------5--5-------9--9--9-------9--9--9---|
E--/7----7--7----/5----5----/3----3----/7----7--7----/7----7--7---| repeat


Go on sit back and relax, and get comfortable
Now close your eyes, now make it right

Don't point your finger up at me
Don't you know it's you why you're suffering?
You're why your suffering

I've got my mind set at ease
Don't you know it's you why you're suffering?
You're why your suffering

I got my reasons to live
Find More lyrics at www.sweetslyrics.com
Don't you know it's you why you're suffering?
You're why your suffering

I've got my mind set at ease
Don't you know it's you why you're suffering?
You're why your suffering

You are your suffering
You're why you're suffering

this is played throughout the entire song.

thats about it. i am positive the verse is 100% correct.

enjoy!!
Tap to rate this tab
 
# A B C D E F G H I J K L M N O P Q R S T U V W X Y Z