Rebelution - Other Side tab

-----------------------------------------------------------------------------
                           Other Side - Rebelution
-----------------------------------------------------------------------------
Tabbed by: j.casquejo
Email: geehanski@yahoo.com


Intro: Keyboard or lead guitar
e|---------------------------------|
B|------10/12-10-8-7-8/10-8--------|
G|---------------------------------|
D|-(10)----------------------------|
A|---------------------------(10)--|
E|---------------------------------|

Verse/Chorus: Rhythm guitar
    C  C  G  G  Em Em Em Em
e|--8--8--7--7--7--7--7--7--|
B|--8--8--8--8--8--8--8--8--|
G|--9--9--7--7--9--9--9--9--|
D|--------------------------|
A|--------------------------|
E|--------------------------|

Outro: Keyboard or lead guitar
e|--7----7-----7-----7-------------7-------7-------7-------7--|
B|----8-----8-----8----10-8-7----8---8---8---8---8---8---8----|
G|-----------------------------9-------9-------9-------9------|
D|------------------------------------------------------------|
A|------------------------------------------------------------|
E|------------------------------------------------------------|

e|------7-------7------7-------7------------7-------7-------7------|
B|----8---8---8---8---8--8---8---10-8-7---8---8---8---8---8---8----|
G|--9-------9-------9------9------------9-------9-------9-------9~-|
D|-----------------------------------------------------------------|
A|-----------------------------------------------------------------|
E|-----------------------------------------------------------------|

************************************

| /   slide up
| ~   vibrato

************************************
Tap to rate this tab
 
# A B C D E F G H I J K L M N O P Q R S T U V W X Y Z