Song name
# A B C D E F G H I J K L M N O P Q R S T U V W X Y Z

Rebelution - Outta Control tab

I'm almost positive that this is 100% correct, there may be one or two notes that 
could be off, but that should be it.
This is my first tab in a really long time. I hope you enjoy it!

-------------------------------------------------------------------------------
			    OUTTA CONTROL (solo) - Rebelution
-------------------------------------------------------------------------------
Tabbed by: Evan
Email: eaglynn2@gmail.com

Tuning: standard

e|------------------------------------14p12-----17-14----12------------------|
B|-------------12b14-12-10------------------14--------14----14-12---------10-|
G|-----9-10-11-------------11-------------------------------------14-11-9----|
D|---------------------------------------------------------------------------|
A|---------------------------------------------------------------------------|
E|---------------------------------------------------------------------------|

e|-----------------------12-14-17-19-17-12---------------|
B|-----------------12-14-------------------12-10-9-------|
G|---------9-11-14---------------------------------9-----|
D|-9-10-11-----------------------------------------------|
A|-------------------------------------------------------|
E|-------------------------------------------------------|

e|--12-12-12-12-12-9-14-12-9--12-12-12-12-12-9-14-12----------------|
B|----------------------------------------------------12b14-12-10---|
G|------------------------------------------------------------------|
D|------------------------------------------------------------------|
A|------------------------------------------------------------------|
E|------------------------------------------------------------------|

e|--------------------------9-9h12-9----9----------------------|
B|-------10----10h12-10--------------12---12b14-10----10-12-14-|
G|--9-11----11----------11-------------------------------------|
D|-------------------------------------------------------------|
A|-------------------------------------------------------------|
E|-------------------------------------------------------------|

************************************

| /   slide up
| \   slide down
| h   hammer-on
| p   pull-off
| ~   vibrato
| +   harmonic
| x   Mute note
| b   Bend
| pb  Pre-bend
| br  Bend release
| pbr Pre-bend release
| brb Bend release bend

************************************
Tap to rate this tab
 
# A B C D E F G H I J K L M N O P Q R S T U V W X Y Z