Song name
# A B C D E F G H I J K L M N O P Q R S T U V W X Y Z

Rebelution - Lazy Afternoon chords

Highlighted       Show chord diagrams
-----------------------------------------------------------------
Lazy Afternoon- Rebelution
-----------------------------------------------------------------
Tabbed by: Brian Zucker
Email:bnzucker@comcast.net
Tuning: Standard
     G       Am      D      Am
e|---3---3---5---5---5---5---5---5-------------------------------|
B|---3---3---5---5---7---7---5---5-------------------------------|
G|---4---4---5---5---7---7---5---5-------------------------------|
D|---5---5---7---7---7---7---7---7-------------------------------|
A|---5---5---7---7---5---5---7---7-------------------------------|
E|---3---3---5---5---x---x---5---5-------------------------------|
Tap to rate this tab
 
# A B C D E F G H I J K L M N O P Q R S T U V W X Y Z