Rebelution - Dubzilla tab

-----------------------------------------------------------------
Dubzilla - Rebelution
-----------------------------------------------------------------
Tabbed by: Brian Zucker
Email: bnzucker@comcast.net
Tuning: Standard
e|-5-5-----8-------8-7-------5-7-8-------------------------------|
B|---------------------------------------------------------------|
G|---------------------------------------------------------------|
D|---------------------------------------------------------------|
A|---------------------------------------------------------------|
E|---------------------------------------------------------------|

e|-5-5-----8-------8-7-------8-7-5-------------------------------|
B|---------------------------------------------------------------|
G|---------------------------------------------------------------|
D|---------------------------------------------------------------|
A|---------------------------------------------------------------|
E|---------------------------------------------------------------|

chords
   Am      Em
e|--5---5---7---7------------------------------------------------|
B|--5---5---8---8------------------------------------------------|
G|--5---5---9---9------------------------------------------------|
D|--7---7---9---9------------------------------------------------|
A|--7---7---7---7------------------------------------------------|
E|--5---5---x---x------------------------------------------------|
Tap to rate this tab
 
# A B C D E F G H I J K L M N O P Q R S T U V W X Y Z